Agnus Dei Opening

The youth music team did an instrumental variation of Agnus Dei to open an event some 1+ year back; I did post it up last year but I doubt anyone remembers! Anyway, here it is, thought some of you might like it, or even want to use it for events in your own church - you can download the mp3 at http://www.savefile.com/files/2059292



The guitar starts at 1:30, but I've written up the chords for your keyboardists to use too.


Tabs & Chords

Keyboard part:
Play freely for awhile, rotate between F and Am cchords

For the Agnus Dei melody (from around 0:28), the bass notes move pretty quickly. They are:
Am G F Dm Am
Am G F D D/F#
Repeat twice.

After which the song turns to a major key:
G C/E Am Dm C/E F

Build up:
G# A# C C (x3)

Electric guitar enters:
For the note in italics (12s), slide down very quickly. Its more to give the melody more articulation and feel, than to have an actual note sound out.
--------------------------

--------------------------
-12s9s10s12-12s14s12-12---
--------------------------
--------------------------
--------------------------
C

--------------------------
------------------12-13---
-12s9s10s12-12s14---------
--------------------------
--------------------------
--------------------------
A#

--------------------------
-12p10-12-10p8-10-8p6-----
--------------------------
--------------------------
--------------------------
--------------------------

Use the earlier chord progression (G# A# C C) from here onwards

-----------15-15-13p12-12------12h13p12-----
-8------13------------------13---------13---
-----12-------------------12-------------12-
--------------------------------------------
--------------------------------------------
--------------------------------------------

----15-15------15-15-13p12-12-
-13---------13----------------
----------12------------------
------------------------------
------------------------------
------------------------------

-------------------------15---
-15b17r15-13-15b17r15-13------
------------------------------
------------------------------
------------------------------
------------------------------

-15--------15-15-13p12-12------12h13p12-----
-------13-------------------13---------13---
----12--------------------12-------------12-
--------------------------------------------
--------------------------------------------
--------------------------------------------

To end, play
G# A# (x3) C

1 comment:

Daniel said...

was this recorded live? if so that is great quality!!!!