You'll Come

By Neil

Hi here is my 2 cents for this song. There are some mistakes here and there on the video. Don't pick it up. Follow the tab. And if there are things I didn't hear kindly correct it on the comments...God Bless.



Intro:
--------------------------------------
--------------------------------------
--------------------------------------
---7-s-9-----7-s-9--s--11-------------
---9-s-11----9-s-11-s--12-------------
---0---0-----0---0-----0--------------

Verse:
Same as intro but differs in strum pattern (watch vid).

Also, I am using a Semi-Hollow guitar model on my variax to get that a
softer tone.

Pre Chorus: (Not quite s about this but it sounds close)
Turn on the delay (use stereo deley dotted 8th if using single amp). I use a dual amp on my X3L so I pan the amps left and right. 1 chain will use quarter digital delay, the other will use dotted 8th digital delay. There were also some accidental high string strikes... don't pick it up.


--------------------------------------
---------10-9-7-7-9-7--------10-9-7---
------9----9-9-9-9-9------9----9-9----
---7-------------------7--------------
--------------------------------------
--------------------------------------

Chorus (low):
-------------9------------------------
------9--12---------------------------
---------------11--11s13s11-9-11------
--11----------------------------------
--------------------------------------
--------------------------------------

Intro2: (Turn on your overdrive and use the bridge pickup)
The pattern is the same as the intro.

Verse2: (Use palm muting following the same pattern as the first verse)

Pre Chorus (High):
F#m G#m B5 C#m
--------------------------------------
--------------------5-----------------
---2-----4-----4----6-----------------
---2-----4-----4----6-----------------
---x-----x-----2----4-----------------
---2-----4----------------------------

F#m G#m B5
--------------------
--------------------
---2-----4-----4----
---2-----4-----4----
---x-----x-----2----
---2-----4----------


Chorus
(High)

You'll come...
--------------------------------------
---10--9---12---10--------------------
---9---9---11---9---------------------
---7---9---9----11--------------------
--------------------------------------
--------------------------------------
As you respond...
--------------------------------------
---10--9---12-------------------------
---9---9---11-------------------------
---7---9---9--------------------------
--------------------------------------
--------------------------------------
Singin...
--------------------------------------
---10--9---12---9---10----------------
---9---9---11---9---9-----------------
---7---9---9----11--11----------------
--------------------------------------
--------------------------------------
you'll come...
--------------------------------------
---10---------------------------------
---7----------------------------------
---7----------------------------------
--------------------------------------
--------------------------------------

Instrumental: (Using octaves)
--------------------------------------
---9-s--11--s--13--s--14--------------
---x----x------x----------------------(2X)
---7-s--9---s--11--s--12--------------
--------------------------------------
--------------------------------------

Bridge:
Chains be broken...
--------------------------------------
---9--9---12--------------------------
---9--9---11--------------------------
---9--11--9---------------------------
--------------------------------------
--------------------------------------

Christ is revealed...
--------------------------------------
---10---------------------------------
---9----------------------------------
---7----------------------------------
--------------------------------------
--------------------------------------

7 comments:

Neil Rey Gallano said...

Hi Kenny, sorry I noticed something wrong with my comments on the tab. The turn on delay thingy should be on pre-chorus and not on the forst verse. Cheers.

Hesso Amante said...

what guitar is he using?
why is it that there is no pick ups i see? );

Neil Rey Gallano said...

I use a Line6 variax electric guitar. It's a modelling guitar. Check out www.line6.com for more info kabayan!

g4ss13 said...

Just in case someone doesn't notice... the instrumental should be down one string.

-----------------
-----------------
---9-s--11--s--13
---x----x--------
---7-s--9---s--11
-----------------

guitar_pic said...

Is the delay on the second verse when you are doing the palm muting strum?

Bram C. Asuncion said...

hi gud day. this is my first tab. its from the video that nigel posted (youtube)

this is the chorus part...
if u have corrections pls post it. thanks

--------------9-------------
--9--------12------12---12--
---------9------11----9-----
----9h11--------------------
----------------------------
----------------------------

----------------9--11------------------
--9----------12----12------------------
----9------9-------9---11s13s11-9----9-
------9h11---------9--------------11---
---------------------------------------
---------------------------------------

--------------9-------------9---9--
--9--------12------12---12--10--10-
---------9------11----9-----9---9--
----9h11--------------------9---12-
-----------------------------------
-----------------------------------

longge said...

The style of the case of both the contemporary Chanel watches as well as the vintage timepiece plays a part in determining its value. Hinged lugs, curved cases, enamel cases, "Art Deco" style cases all make the vintage piece stand out from the others, thus increasing the value to collectors. Style and shape of the contemporary piece are factors in today's price based on current popular trends.