From the Corners of the Earth

Here's From the Corners of the Earth by Starfield. Interestingly, the intro uses a pitch shifter to 'slide' the notes an octave lower.




Tabs
Intro
The notes in bold are played using a pitch shifter. Set the pedal to play the note an octave, or 12 notes, lower. Alternatively, you could just play the notes.

-8---11---10---8---13----11--8---

---------------------------------
--5-----8-------5----10----------
---------------------------------
---------------------------------
---------------------------------

Verse
Play the bass notes, each note 8 times.
---------------------

---------------------
---------------------
------6-5-------8----
-3-s6------3-s6---8--
---------------------

Lead guitar comes in in the 2nd half. Use a pitch shifter again, although in the video i just played the note. Strum the last note.

-------------------------------------------

-13----11----8----6----13----11----8----6--
-------------------------------------------
---10-----8----5----3---10-----8----5---3--
-------------------------------------------
-------------------------------------------

Chorus
-------------------15------------------------
-12-13-12-13-12-13----13-(x7)-13h15-15-15...-
-12-12-12-12-12-12----12---------------------
---------------------------------------------
---------------------------------------------
---------------------------------------------

1 comment:

drewdude30 said...

Hey kenny do you use the 1C patch here as well? like on i will go?