Better than Life

By Jerome

Here's the 3rd song on the album All For Love by Planetshakers. I tabbed out the rhythm guitar i think... have fun!



Intro & Verse: just play it through the whole verse
---------------------
---------------------
---------------------
---------------------
-2(4x)---------------
------4(4x)-4-0-0----

Pre-Chorus: Pretty Crucnh sound here

Power chords:
C#m E C#m

Followed by: E octave slided
--------------
--------------
-8s9----9-----
-----3x-------
-6s7----7-----
--------------

Chorus:
B F# G#m
B F# G#m
B F# G#m
C#m E

Bridge: Palm mutes
---------------------------------
---------------------------------
---------------------------------
-11-13-13-11-13-13-11-13-13-14-14
---------------------------------
---------------------------------

----------------------
----------------------
---------------------- 3x
-13-14-13-14----------
----------------------
----------------------

---------------------------------
---------------------------------
----------------------------9----
-11-13-13-11-13-13-11-13-13-9----
----------------------------7----
---------------------------------

Bridge part 2: just (strum 11)play with the notes
------------------
------------------
-11-then-11s13(2x)
-----------------
---------------
------------------


Zoom G1X settings:

Whole song:

Pedal Assign: Volume

Comp/EFX. oF

Drive: bG
Gain: 27

EQ
Low: 16
Mid: 17
Hi: 17

ZNR/Amp: b2

Modulation: oF

Delay: of


Reverb: S5
decay: 20

1 comment:

He is Good said...

Great man, thank´s for this song