All That Matters

By Jerome

Here are are the tabs of All That Mattters song in the album All for Love by Planetshakers... I tabbed the lead guitar but it's quite confusing though!



Intro: Use delay in the whole song
----------------8-----------------
-------10-------------10---8------
-9--10----9--10--9--10------------ 2x
----------------------------------
----------------------------------
----------------------------------
rpt each note several times refer to the video

Verse: palm muting
--------------------
--------------------
-10--9--------------
--------------------
--------------------
--------------------
just play on this 2 notes,
follow the video instead.

Followed by: palm muting,(Bluesy sound with delay)
-13--12------------------
--------13---------------
----------14-12-14------- 4x
-------------------------
-------------------------
-------------------------
rpt each note several times refer to the video

Pre-chorus: same as Intro
----------------8-----------------
-------10-------------10---8------
-9--10----9--10--9--10------------
----------------------------------
----------------------------------
----------------------------------

1st Chorus: palm muting
--------------------
--------------------
-10--9--------------
--------------------
--------------------
--------------------
just play on this 2 notes,
follow the video instead.

I living.... (Bluesy sound with delay)
-13----------13------------------
----13---------13------13--------
------12-14------12-14----------- 2x
---------------------------------
---------------------------------
---------------------------------
rpt each note several times refer to the video

Pre-verse 2: same as Intro and Verse

Pre-chorus: palm muting
-------------------
-11--10--10--8-----
-------------------
-------------------
-------------------
-------------------
rpt each note several times refer to the video

Followed by:

I living all for your Glory....
Same as Intro riff

Chorus:
-----------------------------------
-11--10-----11--10----8--------8---
-------10--9------12---8--12----8--
------------------------8----8---8-
-----------------------------------
-----------------------------------
rpt each note several times refer to the video


Instrumental: same as Intro but end with
6 fret on b sting.

Bridge: bands in

1st Chorus: palm muting
--------------------
--------------------
-10--12--------------
--------------------
--------------------
--------------------
just play on this 2 notes, follow the video.

Followed by:
--8----------------8---------------
----11--10--11--10--8--------------
----------10---------9------------- 2x
-----------------------------------
-----------------------------------
-----------------------------------
rpt each note several times refer to the video

end by playing the 8th fret on the high e string, as with the video.


Zoom G1X Settings:

Pedal Assign: delay
80% close

whole song

Comp/EFX. oF

Drive: bG
Gain: 16

EQ
Low: 17
Mid: 15
Hi: 14

ZNR/Amp: S2 or b2

Modulation: 0f

Delay: d8
time: 33

Reverb: s2
decay: 15


Some parts: (Blues sound)

Drive: bl
Gain: 14

EQ
Low: 17
Mid: 15
Hi: 14

ZNR/Amp: S2

Modulation: 0f

Delay: d8
time: 33

Reverb: s2
decay: 15

4 comments:

jotaro said...

Thanks for the tab bro. God bless your gift and use it for His glory.

aRdii said...

woah.....i like this blog.... :)

John Boyce said...

How about using Guitar Rig 4?

ricardo said...

praise the Lord... :)
thanx for the G1x setting..
i'm not good yet in G1xNext pedal. :( i hope that you will post more for the setting,, God bless bro!.