Came to My Rescue

By Jerome



---------------------------
--------------8------------
---9------9----10----9------ 2x
-10-10--10-10----9-10-10----
----------------------------
----------------------------

followed by:
------7-8--8--8--8--8-------
----------------------------
---9-----10-10-10-10--------
-10-10----------------------
----------------------------
----------------------------

Continue to play it without pausing when entering the chorus.

11 comments:

Anonymous said...

yaaaa firzt comment

Anonymous said...

yaaa firzt comment

Anonymous said...

your guitar is out of tune bro

Anonymous said...

Hey just to let you know, the vid you play

---------------------------
--------------8------------
---9------9----10-9---9------ 2x
-10-10--10-10------10-10----
----------------------------
----------------------------

Instead of what you tabbed above, in case somebody wonders why it sounds a bit weird. =)

Cheers.

guitarluvr said...

great video. i love this part of the song.

Anonymous said...

what effects are you using??

Jam said...

Awesome job dude. . .

Elijah Bepono said...

This song was performed at KL.

Ken said...

Thanks so much!

magno_e said...

w0w thats so good it helps me a lot..

tnx..^_^

Praise the Lord said...

i think it ends in:
------7--8------8------8----
----------------------------
---9--------10-----10-------
-10-10-10-10--10-10--10-10--
----------------------------
----------------------------