Because of Your Love (Al Gordon)

Al Gordon is a friend of Tim Hughes', i think, and his music is quite similar. So if you like Hughes' music, you'll enjoy playing this.




Verse
----------------------------------------
----------------------------------------
-11..---4..--(x2)-13..--9..-4..-11..----
----------------------------------------
-9...---2..-------11..--7..-2..-9...----
----------------------------------------

Chorus
------------------------------------------
--------------12--------------------------
11s13..-11s13----13-11-(x3)-6--8--9--11---
------------------------------------------
-9s11..--9s11----11-9-------4--6--7--9----
------------------------------------------

------------------------------------------
--------------12--------------------------
11s13..-11s13----13-11-(x3)-11-13-14-15---
------------------------------------------
-9s11..--9s11----11-9-------9--11-12-13---
-----------------------------------------

Bridge
----------------------------------------
----------------------------------------
-4--------6--------4--------4-----------
---6-4-6----8-6-8----6-4-6----6-4-6-----
----------------------------------------
----------------------------------------

----------------------------------------
-4------------------------------7-------
---4------4--------6--------6-----6-----
-----4-6----6-4-6----8-6-8----8---------
----------------------------------------
----------------------------------------

5 comments:

Niall said...

Usually your tabs are brilliant, but I'm not too sure about this one.....

Maybe it'll all slip into place when the video comes!

Anonymous said...

you're right, al is a good friend of tim's & plays with him a good bit.

my friend played on al's ep & he's using a digitech whammy on the verse, which gives that octave sound. hope that helps you get started!

Niall said...

Right so after watching your video, I think I get where you're coming from, but the verse riff is wrong.

Your playing the harmony! The notes are B then F#, not the other way around!

Apart from that its a great tab!

Anonymous said...

Good to c you're back in shape again~~

After this no more reason not to post tabs anymore! XD

Ben said...

Al is the assistant worship pastor at HTB which is the church that Tim Hughes is worship pastor at. They run a thing called worship central which I went to a couple months ago. Great day. I think they are touring the world well going to America anyway now.

www.worshipcentral.org is the website.

Al's EP is great!