You'll Come

By Jerome

Here's You'll Come in "With Hearts as One" by Hillsong United. Hope you like it!



Intro:
------------------------------
------------------------------
-9-----------9-------9--------
-9-----------9--7-7 -9--------
-7--7s9-9s11-7-------7--7s9---
------------------------------

------------------
------------------
------9----------- 2x
------9-----------
-9s11-7-----------
------------------

E Esus4

Verse:

Followed by:
------------------------------
---------------10--10---------
-9----------9--7---9--9-------
-9----------9--7---7--9-------
-7-7s9-9s11-7---------7-------
------------------------------

-------------------
----10--10---------
-9--7---9--9-------
-9--7---7--9-------
-7---------7-------
-------------------

E Esus4 E D A E

Pre-chorus:
--------------------
-----12-12----------
-11--11-11----------
-11--9--9--11-------
-9---------11-------
-----------9--------
F#m E/G# B C#m

--------------------
--------12----------
-11--12-11----------
-11--11-9-----------
-9---9--------------
--------------------
F#m E/G# B

I'm Not pretty sure about the F#m chord that i used there but I hope you get the idea.

Chorus: Use clean sound and delay
------------------------------
--7s9------9-12--12---9-------
-----9----9-----9---11--------
------9h11--------------------
------------------------------
------------------------------

----------------11------------
--7s9------9-12---------------
-----9----9-------------------
------9h11--------------------
------------------------------
------------------------------

------------------------------
--7s9------9-12--12---12------
-----9----9-----9---11---11-11
------9h11--------------------
------------------------------
------------------------------

------------------------------
---------14--14---------------
-13-13h14----14---------------
-------------14---------------
------------------------------
------------------------------

I switch my pick-up to the 2nd to have softer sound.

Chorus 2: Use overdrive
------------------------------
---12---12------12-----12-----
-14---13---12s13---9-11-------
------------------------------
------------------------------
------------------------------

------------------------------
---12---12------12-----12-----
-14---13---12s13---9-11-------
------------------------------
------------------------------
------------------------------

------------------------------
-----12----12-12--------------
---11----11-----11------------
-13----14---------------------
------------------------------
------------------------------

------------------------------
---12---12------12-----12-----
-14---13---12s13---9-11-------
------------------------------
------------------------------
------------------------------

-----9--12--------------------
---10-10----9------------------
-11---------7------------------
------------7------------------
-------------------------------
------------------------------

A E B F#m
A E B B
A E F#m B F#m D

Instrumental:

Just play the intro chords too.

Bridge:
F#m E B
Chains be broken
F#m C#m B
Lives be healed
A E B
Eyes be opened
A
Christ is revealed

8 comments:

youngworship said...

all good, execpt the last line of the chorus should be (chords!)

A E C*m B F*m D

Sorry my hash key doesn't work, so the stars had to do!

Good work!

youngworshipper said...

Sorry forgot to mention, the pre chorus is slightly wrong as well.

F#m G#m B C#m

F#m G#m B

(copy and paste got the hash in there!)

God Bless

youngworshipper said...

Oh now i made a mistake sorry!

pre chorus:

F#m E/G# B C#m

F#m G#m B

youngworshipper said...

Now I got it a bit wrong

Pre chorus:

F#m E/G# B C#m

F#m E/G# B

Si-Xian said...

the bridge sounds wrong... can anyone verify please? thanks

Anonymous said...

i think prechorus should be like this:

--------------------
-----12-12----------
-11--11-11----------
-11--9--9--11-------
-9---------11-------
-----------9--------
F#m E/G# B C#m

--------------------
--------12----------
-11--12-11----------
-11--11-9-----------
-9---9--------------
--------------------
F#m E/G# B

AdarsillowW said...

k distorcion usas?/? (what distortion do you use in this song??

Flavius said...

look at this composition is http://www.youtube.com/watch?v=dQT5R9m_dAk mui mui sounds good i ............. well that if the beams i la hangs on your page?