Show Me How to Live (with wah tap)

I previously did a tapping thing with a wah effect for The Time Has Come, and here it is again, in the Bridge of Show Me How to Live. I recently did it in church, and used the church recording for the backing track instead.



Tabs
-------------------
-------------------
--------------6----
----------------7--
-------7-5--5------
-2-4-5-------------

Strum with wah & dotted 8th note delay.
--------9---10--
----10--10--10--
-9--9-----------
----------------
----------------
----------------

Tap
-9-5-2-(x8)--9-5-0-(x8)--10-5-2-(x8)--9-5-2-(x8)-
-------------------------------------------------
-------------------------------------------------
-------------------------------------------------
-------------------------------------------------
-------------------------------------------------

1 comment:

cecillia said...

bagus sekali minimalist home design infonya. terimakasih.
hadapilah semua masalah. selesaikan home design and decorating ideas dengan hati yang tenang dan otak yang yang dingin serta berusaha specifications car and motorcycle dengan keras... price and specifications