Neverending (bass)

By Bass Levite




Song by David Crowder Band. Verse and chorus, straight forward alternate picking. Prechorus has a special riff to it. Varies the first time and second time repeats a bit, but generally goes like this.

Prechorus

------------------------
------------------------
-3-3---1-3--3-3-3---1-3-
-----4------------4-----

------------------------
-5-5---3-5--5-5-5---3-5-
-----5------------5-----
------------------------

That's a friend's bass I'm using to record; adjusted the bolt, string height and intonation for him. Haven't played a 4 string for sometime so I used it to record.

2 comments:

Anonymous said...

can you guys tab it out for guitarrr? thanks

Jon said...

Yeah!! Tab it out for guitar!