We Are Hungry

Here's We Are Hungry by Jeff Deyo. I added some of my own parts at the end of the chorus and instrumental.



Use a 8th note delay (not the dotted one!). You can hear how the delay sounds like at the end, just after the song.


Tabs
Intro
-----------------
-10-12-9-10------
------------11---
-----------------
-----------------
-----------------

Verse
-----------------------------16-17-
----14----14------------14---------
-14----14----14-(x3)-14----14------
-----------------------------------
-----------------------------------
-----------------------------------

----------------------
----14----14----------
-14----14----14-(x4)--
----------------------
----------------------
----------------------

Then play D

Chorus
----------------
-10--9--10--10--
-9---9--9---7---
-7------7---7---
-----7----------
----------------

Something I cooked up to accompany the chorus
-------17-16-17-------16-14-16--
-14-17-------------14-----------
----------------16--------------
--------------------------------
--------------------------------
--------------------------------

-------14----14---------12----12-
----14----17---------------15----
-14------------------14----------
------------------12-------------
---------------------------------
---------------------------------

Instrumental

-----------------
-10-12-9-10------
------------11---
-----------------
-----------------
-----------------

----------------------------------
-10-12-9-10----10---10----9-10----
------------11----11---11---------
----------------------------------
----------------------------------
----------------------------------

-----------------------------------------
-10-12-9-10---------10-12-12b14r12-10-12-
------------11-9s11----------------------
-----------------------------------------
-----------------------------------------
-----------------------------------------

D D Bm D

6 comments:

p4ulxh4 said...

nice, is it possible if you can do lose yourself by jeff deyo

Anonymous said...

Hi, you have to tab out the "brigde" part where the guitarist uses harmonics

Anonymous said...

whats the feedback and stuff for eigth note delay? i cannot find any help on the internet...

Anonymous said...

kenny great job can u do some of Jeff Deyos other songs such as Glory, Jesus i surrender, Bless the Lord, etc. anything by him would be great... thanks

Josh said...

hey could u tell me wat chords u play for the chorus... tyvm

mike said...

In the bridge part, if its the same part I am thinking, guitarist is using a wah pedal and not harmonics. Just noodling and rocking the wah