All the Earth Will Sing Your Praises

By Vitt

Here's the instrumental to the song.



----------------------------------15-----15--15-
--------10b11r10--------------------------------
-s10--12--------12s10-10s17--17-17--17-17--17---
----10------------------------------------------
------------------------------------------------
------------------------------------------------

--------15--------17----15-------------
-18-18----18--18----18----18--17b18r17-
------17----17--------17----17---------
---------------------------------------
---------------------------------------
---------------------------------------

-------------------------------------
-18-----15-18------------------------
---17-17-----17-15-15-14-------------
------------------------15--15-17-15-
--------------------------15---------
-------------------------------------

2 comments:

guitar_pic said...

Dang dude! You are my hero!

Preston said...

Dude i just got the exzact same guitar today its an epi right!!