None But Jesus Acoustic

By Vitt

Here's the instrumental to None But Jesus, from the Hillsong preview cd.



--------------------------6-6-----6------------
----------------------9~-----9-6h9-9-6---------
---6------6---6-8-8s10----------------8p6-6s8~-
6s8-8~-6s8-6~----------------------------8-----
-----------------------------------------------
-----------------------------------------------

-9-8b9r8--------9--9-11-13-13b14r13-11~--
--------9p6-9s11-11----------------------
-----------------------------------------
-----------------------------------------
-----------------------------------------
-----------------------------------------

-9s8-------------------------------------
----9---------------------6-9------------
-----8s6-5b6r5-3s1s3-6-6s8----8s6-8s10s8-
---------------------------------8-------
-----------------------------------------
-----------------------------------------

----------------------------
----------------------------
-5b6r5-3s1-1----------------
----------3-4s3-3b4r3-1-----
-----------------------4-1--
----------------------------

For the rhythm part I played something like this:
Capo 1
Am F G c x3 then Am F G G
-0-3-3-3
-1-1-1-1
-2-2-0-0
-2-3-0-x
-0-x-x-3
-0-x-3--

4 comments:

forresal said...

Thanks for sharing your work, Vitt!

Дмитрий said...

Круто!!!!!

Goob said...

what guitar are you using?! nice looking dreadnought
and thanks for the tabbing brother! helps a lot

Cindy Dy said...

This is just the information I am finding everywhere. Thanks for your blog, I just subscribe your blog. This is a nice blog.


Yong
www.gofastek.com