Solo a Ti

By Jerome

Even though i don't understand any word in this song in spanish, i tabbed the guitar parts requested.



Intro & Verse:
----------------------------------
---5--5---3--3---2-0-2--0--0------
--4--4---2--2---2------1--1-------
-4--4---4--4---2------2--2--------
----------------------------------
----------------------------------

---------------------------------0-
-----3-2-3--3--3---2--0-2-----0----
----4------2--2---2-------2--1--1--
-2s4------4--4---2--2-------2--2---
-----------------------------------
-----------------------------------

------------------------------0---
---3-2-3---3--3---2-0-2----0------
--4-------2--2---2-----2--1--1----
-4--4----4--4---2--2-----2--2-----
----------------------------------
----------------------------------

---------------0------------------
---3-2-3---3------2-0-2----0--0---
--4-------2--2---2-----2--1--1----
-4--4----4--4---2--2-----2--2-----
----------------------------------
----------------------------------
I put some delay and use the 3rd bridge pickup

Instrumental: Heavy overdrive and delay
-12-12------------------------------
------12-12-12-12-14-14-15-15-14h15-
------------------------------------
------------------------------------
------------------------------------
------------------------------------

-----------------------------------
-15-15-15-17-15-12-14b15r14--12-10-
-----------------------------------
-----------------------------------
-----------------------------------
-----------------------------------

------------12-14-16-17-17-19-19---
-12b14r12--------------------------
-----------------------------------
-----------------------------------
-----------------------------------
-----------------------------------

-19-19b20r19-17-19--17--17-19b20r19-
------------------19----------------
------------------------------------
------------------------------------
------------------------------------
------------------------------------

-17--19---17-16-17-19-19---15p14p12-
-------19---------------------------
------------------------------------
------------------------------------
------------------------------------
------------------------------------

8 comments:

Anonymous said...

ola mi nombre es emanuel yo soy de chile y conozco la pagina hace mas de un año veo que te gusta marco barrientos son buenos yo quisiera subir temas de musica en español pero no se como grabarlos podrias decirme ya que keny no responde nunca los mensajes

Anonymous said...

hey bro i thing u r wrong in the begining of the verse it should be
---------------------------------
-3--3---3--3---2-0-2--0--0-------
-4--4---2--2---2-----1--1--------
4--4---4--4---2------2--2---------
----------------------------------
-----------------------------------
but dats all
good job though blessings

Jon said...

You have a gift!Glad your using it for Jesus!!

johnny said...

hey jerome i like how u play guitar i like the song solo a ti eventhough u dont understand it lol

anyways i was just wondering if you can help me out in a song tat i been trying to get the tab but i cant the songs are by Erickson Alexader Molano and are "soy sano"
and "redir mi vida" okay thanks God Bless

FrAd said...

I LIKE THE SONGS IN SPANISH.
I'M FROM MEXICO AND I TALK SPANISH

THANKS

Alexander said...

You're a very talented musician, that was awesome.

Luis said...

Hi! Jerome... I'm from El Salvador!!!
I know this blogg since 2007 and I want to upload some videos whith songs...but how I can do that???

Seúl said...

Hola a todos. Mi nombre es Seúl y los invito a que visiten y colaboren en nuestro blog: adoracionmusical.blogspot.com que es muy parecido a este pero con canciones en Español. Te esperamos y que Dios te bendiga.