Shout to the Lord

Here's a variation on the verse of Shout to the Lord. What I've done is to use lots of Nigel-styled dotted 8th note delay. Some of the parts may sound similar to the chorus of The Stand too.



Tabs
---------------------------
-10--9-------10-9------7---
-9-------------------------
-7---9--9s11----9--9s7-----
---------------------------
---------------------------

---------5--------5--------
---5---5------5------------
-6---7------6---6----------
---------------------------
---------------------------
---------------------------

-----7-----5-----4---------
---------------------------
-6s7---7s6---6s4-----------
---------------------------
---------------------------
---------------------------

1 comment:

samson said...

hello ^^

have a this song solo?
"you're worthy of my praise"