Meant to Live

By Daryl

Here's Meant to Live by Switchfoot.



Tabs
drop D tuning

--------------------------------------------------
--------------------------------------------------
--------------------------------------------------
-------4b-4r-------4b-4r-------4b--4r-------------
-2-2-2-------0-0-0--------------------5--5-5-5-7--
-------------------------2-2-2--------5--5-5-5-7--


|----------------------
|----------------------
|----------------------
|--4h5--4-2---4--------
|-----------5---5-4-0-2
|----------------------

---------------------------------------------------------|
---------------------------------------------------------|
---------------------------------------------------------|
---------------------------------------------------------|
-4-0--0-2-0--0-4-0--0-4-5-4--4-0--0-2-0--0-4-0--0-4-5-7--|
-4-0--0-2-0--0-4-0--0-4-5-4--4-0--0-2-0--0-4-0--0-4-5-7--|

13 comments:

Jean Fredrik said...

nice job, and nice guitar, what kind of guitar is it?

kenny said...

He's using a Gibson BFG

Anonymous said...

hey, nice, almost right
when you bend the note on string 4, pluck the G string at the same time

Anonymous said...

i think that they use power chords instead of single notes. example:
------------------
------------------
--4---------------
--4-4b5-----------
--2---------------
------------------

thats just the first little part of the intro.

Danny Kwon said...

its actually

----------------------------------
----------------------------------
----------------------------------
-4-4-4-4br---2-2-2-4br------------
-2-2-2-------0-0-0----------------
----------------------------------


----------------------------------
----------------------------------
----------------------------------
-5-5-5------5-5-5-5-5-7-7---------
-5-5-5-4br--5-5-5-5-5-7-7---------
-3-3-3------3-3-3-3-3-5-5---------

Anonymous said...

can u make a longer version

Anonymous said...

can u do more switchfoot song

Anonymous said...

all good except try putting the music a little lower so it can be clear what you play and what they do

Jonathan the same as jon said...

WE NEEDDSSS MORE SSSWWITTCCH
FFOOTTT!!!!YEA!

Anonymous said...

The song is played in drop D tuning

Anonymous said...

intro is

999 777 222
999 9b10r9 777 9b10r9 222 4b5r4
999 777 222

55555 77
55555 77
55555 77

Anonymous said...

sry last one got messed up in the format


999
999 9b10r9
999

777
777 9b10r9
777

222 4b5r4
222
222

55555 77
55555 77
55555 77

Preacher said...

when the lead guitar comes in right before the first verse, try (instead of hammering on from the open A to the 2nd fret B) hitting the A on the 7th fret of the low D string and bending it