Break Free (IAVBTS version)

Hey all, here's the In a Valley by the Sea version of Break Free. I've tabbed out the new parts mostly, enjoy!



Tabs
Verse
Same as before, but there is a slight difference in the muting. I've also added some slides for fun.

Prechorus
-------------------------------
----------------------2-2------
--------------------------2----
-----2---4------2---4----------
-------------------------------
-2-2---2----2-2---2------------

---------------------------------
---------------------------------
---------------------------------
-----4---4-6------4---4-6--------
-5-5---5--------5---5------------
---------------------------------

-------------------------------
----------------------2-2------
--------------------------2----
-----2---4------2---4----------
-------------------------------
-2-2---2----2-2---2------------

Followed by D, Bm, then the chorus.

Chorus
Rather than playing power chords, the lead guitar strums:
-----------------
-10--10--10--10--
-9---7---9---7---
-7---7---7---7---
-----------------
-----------------

Bridge
----------------------
-10-10-9h10-10--(x2)--
-9--9--9----9---------
----------------------
----------------------
----------------------

----------------------
-10-10-9h10-10--(x2)--
----------------------
-9--9--9----9---------
----------------------
----------------------

15 comments:

Anson Lau, Raymond Goh, Ruben van Leeuwen said...

Nice man! You did it quite fast huh, ;)
I really like the instrumental. It isn't that hard :p

Ruben

kenny said...

Hope to see the drum vid out soon too!

Anonymous said...

theres something i noticed he does on the verses after this part ---------------------------------
---------------------------------
---------------------------------
-----4---4-6------4---4-6--------
-5-5---5--------5---5------------
---------------------------------
he does 4 muted stroke 16th

Anonymous said...

4 muted 16th strokes*

Anonymous said...

oh sorry...very nice job though!

ericleeisme said...

2-2------
----2----

Doesn't sound right. Sounds like 3 different notes (2b3 or 2h3 on the B) on the cd as opposed to 2 different notes you played.
I think it would help a lot if you played the videos without the cd in the background, because everything sort of blends together.

Brad said...

Yeah you are definitely missing something from the pre chorus tabs...

Brad said...

ok i got it the last note after the 2 on the g string is a slide to the 4th fret on the g string

-------------------------------
----------------------2-2------
--------------------------2/4---
-----2---4------2---4----------
-------------------------------
-2-2---2----2-2---2------------

Anonymous said...

could you identify the strum of the bridge?
I cant seem to get it right.. thanks

James K said...

-------------------------------
----------------------2-2------
-------------------------2----
-----2---4------2---4-----4-----
-------------------------------
-2-2---2----2-2---2------------

Colin said...

kenny it appears to be that you don't play the double barre on your D chord for the prechorus. is this so?

Joshua said...

wait for the chorus, is it just D and Bm?

jovem said...

its so nice, i think you did it like a hillsong guitarist...ah,,kenny, have you famillar about all together separate band?? can you play some of their song for me?? their song is very nice to play, hope you can help me thanks...

Josh Seb said...

Great stuff man.
God bless.

JesusRock!!! said...

hi kenny, nice cover! how many guitars you have?