We Will Sing

By Jerome

Here are the tabs of We will sing by New life worship.



Intro:
-------------------12(3x)-14(3x)-----------
-------12(3x)-15-15-------------15-15------
-14(3x)------------------------------------
-------------------------------------------
-------------------------------------------
-------------------------------------------

-------------------------------------------
-14(3x)-15-15-15-12------------------------
-------------------------------------------
-------------------------------------------
-------------------------------------------
-------------------------------------------

-------------------12(3x)-14(3x)-----------
-------12(3x)-15-15-------------15-15------
-14(3x)------------------------------------
-------------------------------------------
-------------------------------------------
-------------------------------------------

-12(3x)-14(3x)-----------------------------
----------------15-------------------------
----------- --------------------------------
-------------------------------------------
-------------------------------------------
-------------------------------------------

Pre-chorus: palm muting as well...
-------------------------------------------
--8------7b8r7-----8-------10-10-8-7-------
-7--(6x)------7---7--(6x)-7--7--7-7-7------
-------------------------------------------
-------------------------------------------
-------------------------------------------

-------------------------------------------
--8------7b8r7----8-----7b8r7----8---------
-7--(6x)------7--7--(8x)-----7--7--(6x)----
-------------------------------------------
-------------------------------------------
-------------------------------------------

------------------
--10-10-8-7-------
-7--7--7-7-7------
------------------
------------------
------------------

Chorus: (octaves)
-------------------------------------------
-------------------------------------------
-12--14--5--7--9--12--11--9--7-------------
-------------------------------------------
-10--12--3--5--7--10--9---7--5-------------
-------------------------------------------

-------------------------------------------
-------------------------------------------
-12--14--5--7--9--12--11--9--5-------------
-------------------------------------------
-10--12--3--5--7--10--9---7--3-------------
-------------------------------------------

1 comment:

Andrew56Mike said...

the 14(3x) 15 15 15 12 at the end of the first part of the intro is tabbed to be all on the B string, but the 14 should be on the G string. You played it write, just tabbed it a little off.