Super Strong God (Bass)

By Bass Levite

From Hillsong Kids.




Intro:

---------
-5-7-5---
-------7-
---------

-----------------
---5-------------
-----5-5-7-5-4--- (2x)
-7-------------5-


Verse:

-------------------------
---5---------------5-----
-----5-5-7-5-4-------5-7- (2x)
-7-------------5-7-------


Prechorus:

---------------------
------7--------5-----
-7-10---9--------5---
----------10-7-----3-


Chorus:

-------------------------
-----------5-------------
-2-2s4-4h5---5-5-7-5-4---
-----------------------5-

---------------------
------7--------5-----
-7-10---9--------5---
----------10-7-----3-


Bridge: (not shown)

| G A/C# | G A/C# | G A/C# | G |

2 comments:

Helen Lagares - Lalá said...

it's awesome!!!
i really like this song!!!

God bless you

varrick94 said...

its in key of?