Promises

By Jerome

Here are the tabs of Promises by Desperation Band. This song is really cool and friendly.




Intro: strum
-----------------
-----------------
-----------------
--4--5--7--5--4--
--5--5--5--5--5--
-----------------

Verse: Strum refer to the vid
-------------------
-------------------
-------------------
-7--------7----5---
-5-7-9-5--5-7--5---
---5-7-3----5--3---

Followed by Lead guitar:
----------------------
----------------------
-"9-7-6-4-12-7-6"--5--
-------------------3--
-------------------3--
----------------------
Repeat the notes inside "" several times

Pre-Chorus:
-------2--
-3--2--3--
-2--2--2--
-4--2-----
----------
----------
Bm A D

Chorus: (Power Chords)

D A Bm G

2 comments:

Mauricio A. said...

Followed by Lead guitar:
----------------------
----------------------
-"7-6-4-12-7-6"--7----
-------------------5--
-------------------5--
----------------------

if I'm not mistaken I think this is the correct way

Mauricio A. said...

for the New Life Version