Lead Me On

By Jerome



Here are the tabs of Lead Me On by Planetshakers.. have Fun!

Intro: Strum (power chords)

C G F G Am G F F

C G F G Am G

Followed by:
-----------------
-----------------
-----------------
-2-3-3-2-3-3-2-3-
-3-3-3-3-3-3-3-3-
-1-1-1-1-1-1-1-1-

Verse: strum
----------
----------
----------
-5--------
-3--5--3--
----3--1--

Then play C G F G power chords

----------
----------
----------
-5--------
-3--5--3--
----3--1--

Then play C G F G power chords

Pre-chorus
--------------
--------------
-7-9-9------ (3x)
--------------
-5-7-7--------
--------------

--------------
--------------
-7-9-12-9-----
--------------
-5-7-10-7-----
--------------

--------------
--------------
-7-9-9------ (3x)
--------------
-5-7-7--------
--------------

--------------
--------------
-7-9-12-9-----
--------------
-5-7-10-7-----
--------------

--------------
--------------
-7-9-9------ (3x)
--------------
-5-7-7--------
--------------

--------------
--------------
-7-9-12-9-----
--------------
-5-7-10-7-----
--------------

--------------
--------------
--9-10-12-17--
--------------
--7-8--10-15--
--------------

Bridge:
-----------------
-----------------
-----------------
-----------------
-3-3-3-----------
------0-0-1-1-1--

-----------------
-----------------
-----------------
-----------------
-----------------
-3-3-5-5-5-0-0---

-----------
-----------
-----------
-----------
-----------
-1-1-3-3---

5 comments:

Anonymous said...

hey the rhythm guitar is easy to play, could you post a lead guitar part for the song? many thanks

Anonymous said...

yeah, the lead part would be awesome, whats that little bend during the verse? I can't figure that out...

Anonymous said...

Hey what kind of guitar is that? The body looks like a normal fender strat but the neck kinda looks like a fender starcaster.

Harry said...

Hey, I don't understand the intro. Is it supposed to be power chord in the fret 1 and 3 for F, fret 3 and 6 for G, etc?

I want to know the lead guitar and the bends during the song. Thanks and God Bless

longge said...

TAG Heuer Carrera: "the abreast sports Replica Omega aggressive by motor racing" is addition accumulating built-in amid TAG and Porsche and charcoal one of their best affairs watches. TAG has aswell partnered with Mercedes-Benz and afresh came out with the TAG Heuer SLR for Mercedes-Benz: "the aberrant alarm for GT car connoisseurs" watch.