My Glorious (Bass Intro)

[somehow the video lags behind the audio when i uploaded this video]

By James




G|-------------------------------
D|--------------------2----------
A|----------0---2--4-----4--2--0-
E|--0h2-2------------------------


G|-------------------------------
D|--------------------2----------
A|----------0---2--4-----4--2--0-
E|--0h2-2------------------------


G|---------------------5-----------
D|-------------5/7-----------------
A|--5--5---------------------------
E|---------------------------------


G|-------------------------------------
D|-------------------------------------
A|--2--2----4--4--4--4--2--0--2--0-----
E|-------------------------------------

h - hammer on
/ - slide

6 comments:

BaSS_LeViTE said...

Wow... a lefty! Rarity indeed. Good job! =)

Temo said...

YEAH!!! A left handed bass, SWEET!!! I kinda play that different! But awsome juob on it!!

Ira James said...

Well yes, I am left handed but i'm not using a left handed bass. It has something to do with the camera of my phone i don't know why. n_n hahaha

BaSS_LeViTE said...

I guess your cameraphone makes a mirror image then? ><

Hatch said...

Just tossing this out there, but when you look at someone playing bass and the neck and head of the guitar go to that person's left and your right, then that is a right handed bass =)

longge said...

Its abnormally advised sole, MBT shoes sale , accumulated with actual training, achieves a added alive and advantageous aspect and walk. MBT shoes accept a absolute aftereffect on the absolute body. They accept been accent for the assumption of accustomed instability. For the blow of this document, a few of the adequate shoes now accessible will be debated.