Emmanuel (by kenny)

Here are the tabs of Emmanuel, a song i wrote a few months back. Emmanuel means 'God with us', and is often referred to today during Jesus' time on earth. But sometimes we forget Jesus is coming back, and this song is all about that. Most of the lyrics are in fact taken from Revelation 21 and 22. Download the song here.


Chords & Lyrics (tabs below)

Verse:
Behold the city of God
Where the light never fades,
The light never fades.

Behold the trees of Life,
Where the nations will heal,
The nations will heal.

You’re the First,
The Last, Beginning and End.
You’re the Bright Morning Star.

Your name,
Will be written on our heads.
You will wipe every tear

Chords: G D Em C (x4)

Pre-Chorus
Earth & sky flees before you.
Nations kneel, bow, before you.

Chords: C D C D

Chorus:
Emmanuel, Emmanuel
Lord You are, close to us.
Emmanuel, Emmanuel
Lord You make, all things new.

Chords: G D Em C (x2)

Instrumental:
C D C D (x2)


Tabs
Intro
----------------------------------------
-15----15----15----15----------15-------
----12----12----12----12-11-12----12-11-
----------------------------------------
----------------------------------------
----------------------------------------

---------7-----------------------
-------8---8----------12---------
-7-7-9-------9-----12----12------
----------------10----------10---
---------------------------------
---------------------------------


Verse
---------------------------------
---8---7---8-------7---8---7-----
-7---7---7---7---7---7---7---7---
---------------------------------
---------------------------------
---------------------------------

---------------------------------
---8---7---8---------------------
-7---7---7---7----7---5---7------
----------------5---5---5---5----
---------------------------------
---------------------------------

--------------------------------------------
-12---------15---------12--------13---------
----12-(x4)----14-(x4)----12-(x4)---12-(x4)-
--------------------------------------------
--------------------------------------------
--------------------------------------------

Pre-chorus
Use tremolo, strum open chords

Instrumental
-7---7---7--10----10----10-------
--8---8-------10----10-----------
---9---9--------11----11--------- (x2)
---------------------------------
---------------------------------
---------------------------------

---------------------------------
---------------------------------
-7h9-9-9-7-7-7-7h9-9-9-9-9-9-9---
---------------------------------
---------------------------------
---------------------------------

-------------------------------------------
-------------------------------------------
-9s11-11-11-9-9-9-9h11-11-11-11-11-11-11---
-------------------------------------------
-------------------------------------------
-------------------------------------------

---------------------------------------------
---------------------------------------------
-11s12-12-12---11-11-11-11h12p11----------11-
---------------------------------14-12-14----
---------------------------------------------
---------------------------------------------

---------------------------------
-------12-15-15------------------
-12-14---------------------------
---------------------------------
---------------------------------
---------------------------------

4 comments:

Anonymous said...

Thanks mate. Ill send you the song when i have practiced it with my band. And i know what i did wrong. I had my guitar in d tuning xD.
My bad.... Well cya.

Greetz Psycr0tic

Siwelb said...

That is an awesome song!

Anonymous said...

wow awesome.

how did u record the bass and drums?

what program

kenny said...

I used Anvil Studio.