Glorious God

By Jerome

Here're the tabs of New Life Worship's Glorious God. I use some stereo delay and the Rat distortion. I've recorded with Audacity this time round as well, hope you like it.



Intro:
---------------------------------
-10--10-9-9-----10--10-12-9-------
---11----9-9s11---11-------9-9s11- (2x)
---------------------------------
---------------------------------
---------------------------------

Pre-Verse:
-----12----12-----------------12---
-9-10--9-10--9-10-9-10-10-9-10-----
----------------------9------------
-----------------------------------
-----------------------------------
-----------------------------------

-----12--------------
-9-10---9-10---------
---------------------
---------------------
---------------------
---------------------

Verse 2:
(same as intro but played 1x)

Pre-Chorus
-----12----12-----------------12---
-9-10--9-10--9-10-9-10----9-10-----
----------------------9-9----------
-----------------------------------
-----------------------------------
-----------------------------------

-----12--------------
-9-10---9-10--12(7x)-
---------------------
---------------------
---------------------
---------------------

Chorus:
(Just slam the Chord)

A E Bm D

Instrumental:
------------------------
------------------------
-7--6---6---------------
------9---9--7--9--11---
------------------------
------------------------

------------------------
------------------------
-7--6---6---------------
------9---9--7--9--7--9-
------------------------
------------------------
Repeat each note several time refer to the video and I transpose
this part to guitar from the piano.

2 comments:

Sam said...

this isnt generation unleashed. it's New Life Worship

Anthony said...

hey what key is this in?