Let Creation Sing (bass)

By Bass Levite

Verse: | D | D | Em | C/E | 2x
| D/F# | Em | C | C | 2x

Chorus: | G | C | Em | D | G | C | D | Am |
| G | C | Em | D | G | C | Em | D |

Instrumental: | G | C | Em | D |

To create a fading out effect after a note you play, simply slide it down the fretboard after playing that note, and then releasing it and muting it with your left hand after a few frets. You will see me doing it quite often in the first part of the instrumental, denoted "s".





Bridge:

Repeat the following 3 times

---------------------------
--------------10-10----10s-
-10-10----10s-------10-----
-------10------------------

------------------------
-----------12-14----14s-
-9-9----9s-------12-----
-----10-----------------

Then

---------------------------
--------------10-10----10s-
-10-10----10s-------10-----
-------10------------------

------------------------
-----------14-------14s-
-9-9----9s----12-12-----
-----10-----------------

Next, build up the instrumental, taking note that the Am arpeggio is played differently each time.

-12-12-12-12-12-12-------
-------------------12-12-
-------------------------
-------------------------

-------------------------
-10-10-10-10-12-10-------
-------------------12-10-
-------------------------

-------------------
-------------12h14-
-9-9-9-9-9-9-------
-------------------

Am, first round

-------------------------
----------14-------14----
-12-12-12----12-12----12-
-------------------------

Am, second round

-------------------------
-------------14----14----
-12-12-12-12----12----12-
-------------------------

Am, third round (i improvised in the video, original tabs below)

-------------------------
----------------12-12----
-12-12-12-12-12-------12-
-------------------------

Am, fourth round (nothing special here, to lower the instrumental atmosphere)

-------------------------
-------------------------
-12-12-12-12-12-12-12-12-
-------------------------

Ending

----
----
-10-
----

2 comments:

Anonymous said...

Sweet man. We played this last week at my youth group. I didn't know he actually did something like an effect in the instrumental, I thought they were just slides. Sounds good like that as well though.

Gotta try that Am chord stuff in the build up. Good job.

ken2012 said...

The way she wears replica Hermes handbags has won plenty of admiration. Obviously, her talent can be taught. Here are some tips of how to choose and wear a birkin bag to complement your outfit and represent your personal style.First of all, select the correct material for your birkin to suit different occasions.