Glorious God (bass)

By Bass Levite
From a band called New Life Worship in the album "My Saviour Lives". The verse is played slightly differently through each round of riffs. Here's the overall riff, keeping in mind that you can improvise mostly by playing on different octaves, and adding transition notes in between notes. Sounds a bit like a toned-down version of the "Tell the World" bass riff.



Intro and Verse:
---------------------
-4-4-2---2-2---------
-------4-----5-5-2-0-
---------------------

---------------------------
-4-4-2---2-2-----------4-4-
-------4-------5-5-2-0-----
-------------0-------------

---------------------
---------2-2---------
-------4-----5-5-2-0-
-2-2-0---------------


Prechorus: | Bm | A/C# | D | E |

Chorus: | A | E | Bm | D | 2x

Bridge: | Bm | A | E/G# | Bm | A | E/G# | E | E |

3 comments:

cmorales said...

Hey thanks for the tab!!!

longge said...

pandora charms hopes that these absolute boutique fits can advice to accompaniment the contour of an absolute abundance and accommodate a belvedere for adopting the acquaintance of Pandora. In 2009 you should see added and added retailers opting to cast a area of their abundance to alone retail Pandora.

me. =P said...

Hi why does this video states that its private? I really hope to watch it. thanks