King of Glory (Chris Tomlin)

By Jerome


I use only A little amount of Delay...Have fun!!!
Intro:
----------------------------
-----0----------------------
---2---2--0-----------------
-------------0h2------------
----------------------------
----------------------------

----------------------------
-----0----------------------
---2---2--0-----------------
-------------0--------------
----------------------------
----------------------------

Repeat 2x

2 comments:

Anonymous said...

dont' use delay,

use tremolo

hbsnnews said...

Does anyone have the octives toward the end of the song? I am trying to figure them out.

Thanks