Dancing Generation (bass)

Here's Temo's first post on Matt Redman's Dancing Generation.. and its on the bass!

By Temo



Tabs

Intro
1 2 3 4 1 2 3 4
G)-----------|-----------|
D)-----------|------3----|
A)5-3-5------|5-3-5------|
E)-----------|-----------|
B)-----------|-----------|

1 2 3 4 1 2 3 4
G)-----------|-----------|
D)-----------|-----------|
A)-----------|------8----|
E)7-5-7------|7-5-7------|
B)-----------|-----------|

1 2 3 4 1 2 3 4
G)-----------|-----------|
D)-----------|------3----|
A)5-3-5------|5-3-5------|
E)-----------|-----------|
B)-----------|-----------|

1 2 3 4 1 2 3 4
G)-----------|-----------|
D)-----------|-----------|
A)-----------|8-8-8-8-8-8|
E)7-5-7------|-----------|
B)-----------|-----------|

1st Verse

1 2 3 4 1 2 3 4
G)-----------|-----------|
D)-----------|------3----|
A)5-3-5------|5-3-5------|
E)-----------|-----------|
B)-----------|-----------|

1 2 3 4 1 2 3 4
G)-----------|-----------|
D)-----------|-----------|
A)-----------|------8----|
E)7-5-7------|7-5-7------|
B)-----------|-----------|

1 2 3 4 1 2 3 4
G)-----------|-----------|
D)-----------|-----------|
A)-----------|-----------|
E)8s10-------|8s10-------|
B)-----------|-----------|

1 2 3 4 1 2 3 4
G)-----------|-----------|
D)-----------|-----------|
A)-----------|8-8-8-8-8-8|
E)2s5--------|-----------|
B)-----------|-----------|

2nd verse

1 2 3 4 1 2 3 4
G)-----------|-----------|
D)-----------|------3----|
A)5-3-5-5-3-5|5-3-5------|
E)-----------|-----------|
B)-----------|-----------|

1 2 3 4 1 2 3 4
G)-----------|-----------|
D)-----------|-----------|
A)-----------|------8----|
E)7-5-7-7-5-7|7-5-7------|
B)-----------|-----------|

1 2 3 4 1 2 3 4
G)-----------|-----------|
D)-----------|-----------|
A)-----------|-----------|
E)8s10-------|8s10-------|
B)-----------|-----------|

1 2 3 4 1 2 3 4
G)-----------|-----------|
D)-----------|-----------|
A)-----------|8-8-8-8-8-8|
E)2s5--------|-----------|
B)-----------|-----------|

Pre-Chorus

G-------------------------------------
D-------------------------------------
A----------------------------00000000-
E--00000000-22222222-33333333---------

Chorus

D Em7 G D

Instrumental
1 2 3 4 1 2 3 4
G)-----------|-----------|
D)-----------|------3----|
A)5-3-5-5-3-5|5-3-5------|
E)-----------|-----------|
B)-----------|-----------|

1 2 3 4 1 2 3 4
G)-----------|-----------|
D)-----------|-----------|
A)-----------|------8----|
E)7-5-7-7-5-7|7-5-7------|
B)-----------|-----------| x2

note* I added some fillings that were not part of the song, its just the way I like to play it and makes a little more fun.


9 comments:

Anonymous said...

hey
i play it a different way
and when i played along wit it, it sounds perfectly fine.

kenny said...

Feel free to share the tabs here if you've the time to tab it out..

Temo said...

yeah I would like to see it cuz this is the only way I have heard it, it be cool if I could add some of your stuff into this song too!!!

BaSS_LeVITE said...

Very nice bass you have there temo! Sounds very good, and its 5 stringed! Keep up the good work!

Temo said...

Hey thanks!!! The sound on this bass is so awsome, but computers don't really show the whole range on it, I know cuz I know how yours sound live and computer speakers just can't handle the bass!!!

Steve said...

Hey, Amazing tab! Thank you for doing it! This is such a great song for worship and knowing the bass for it makes it even better!

I was practicing the tabs along side the song and I can't be sure but I think the 8s10 might be played on the A string rather then on the E string. Maybe it's just my ear.

Temo said...

YOU KNOW WHAT!!!!!! YOU're RIGHT< HAAAAA. I messed up on the tab and not just that but also on other things, the video is right, but I should have Kenny change that, hey thanks for correcting that!!

wangzi said...

Pandora Bracelets uk argent chaplet in your adventures to fantabulous and accomplish the arbiter bend armlet for you or adjudicator atypical in your activity history. Graze through and through our internet website to accept chaplet with aerial faculty from our accumulating to actualize your own armlet outline with the bargain pandora charms and chaplet you wish on your fetter, necklace, or wristlet.

Thunderus said...

Intro
1 2 3 4 1 2 3 4
G)-----------|-----------|
D)-----------|------(3)--|
A)5-3-5------|5-3-5-s8---|
E)-----------|-----------|

1 2 3 4 1 2 3 4
G)-----------|-----------|
D)-----------|-----------|
A)-----------|------(8)--|
E)7-5-7------|7-5-7—s11--|

1 2 3 4 1 2 3 4
G)-----------|-----------|
D)-----------|------3----|
A)5-3-5------|5-3-5------|
E)-----------|-----------|

1 2 3 4 1 2 3 4
G)-----------|-----------|
D)-----------|-----------|
A)-----------|8-8-8-8-8-8|
E)7-5-7------|-----------|












1st Verse

1 2 3 4 1 2 3 4
G)-----------|-----------|
D)-----------|------3----|
A)5-3-5------|5-3-5------|
E)-----------|-----------|

1 2 3 4 1 2 3 4
G)-----------|-----------|
D)-----------|-----------|
A)-----------|------8----|
E)7-5-7------|7-5-7------|

1 2 3 4 1 2 3 4
G)-----------|-----------|
D)-----------|-----------|
A)-----------|-----------|
E)8s10-------|8s10-------|

1 2 3 4 1 2 3 4
G)-----------|-----------|
D)-----------|-----------|
A)-----------|8-8-8-8-8-8|
E)2s5--------|-----------|











2nd verse

1 2 3 4 1 2 3 4
G)-----------|-----------|
D)-----------|------3----|
A)5-3-5-5-3-5|5-3-5------|
E)-----------|-----------|

1 2 3 4 1 2 3 4
G)-----------|-----------|
D)-----------|-----------|
A)-----------|------8----|
E)7-5-7-7-5-7|7-5-7------|

1 2 3 4 1 2 3 4
G)-----------|-----------|
D)-----------|-----------|
A)-----------|-----------|
E)8s10-------|8s10-------|

1 2 3 4 1 2 3 4
G)-----------|-----------|
D)-----------|-----------|
A)-----------|8-8-8-8-8-8|
E)2s5--------|-----------|

Pre-Chorus

G)-----------|-----------|
D)-----------|-----------|
A)-----------|-----------|
E)0----------|2----------|

G)-----------|-----------|
D)-----------|-------(77)|
A)-----------|-----------|
E)3----------|5----------|



Chorus

D Em7 G D
G)-----------|-----------|
D)-----------|-----------|
A)55555555555|77777777777|
E)-----------|-----------|
G)-----------|-----------|
D)55555555555|-----------|
A)-----------|555555-----|
E)-----------|-----5s1010|

Zwischenspiel
1 2 3 4 1 2 3 4
G)-----------|-----------|
D)-----------|------3----|
A)5-3-5------|5-3-5------|
E)-----------|-----------|

1 2 3 4 1 2 3 4
G)-----------|-----------|
D)-----------|-----------|
A)-----------|8-8-8-8-8-8|
E)7-5-7------|-----------|

Instrumental
wie Intro (frei)