You Are Good

Here's Lincoln Brewster's You Are Good... by the way, if you use a pod xt you can download lots of Lincoln Brewster patches (made by other guitarists) at customtone.com. Gonna do so tomorrow!

By Daryl



Intro
--------------------------------
--17----17-18-17----------------
-----19----------19-19----19----
-----------------------20----20-
--------------------------------

--------------------------------

------------------------------
-17----17-18-17-------18----18
----19----------17-17----17---
------------------------------
------------------------------
------------------------------

Bridge
--------------------8--11--13--8--6---
-----4--6----------------------------6
--5--------5--3-----5--8---10--5--3---
-----1--3--------3-------------------3
--3--------3--1-----------------------
-----------------1--------------------

6 comments:

Anonymous said...

How would play it if it was in the key of G?

kenny said...

You have to play everything two frets higher up..

Anonymous said...

what key is this song on?

Anonymous said...

What if you play the song in the Key of E?

Jon said...

It's in the key of A.

charlie said...

the song is in C.. not A