Devotion

Here's Devotion by Hillsong United, as many of you have eagerly awaited! Use very slight distortion throughout the song, or just keep it clean, even for the instrumental.



Tabs
Verse 1
The first part is pretty simple, just keep repeating:
--------
----12--
--------
-12-----
--------
--------
Use some delay.

Chords:
C D Em Em (keep repeating)

Verse 2
The guitar part becomes slightly more complicated here:
--------------------------------------
-------------15----15-----------------
----14s16-14----16----16--16b17r16-14-
-12-----------------------------------
--------------------------------------
--------------------------------------
Ignore the last note ('14') on the 2nd and 4th repeat of the riff.

Pre-Chorus
--------------------------------
--------------------------------
-2-0-2s4---4----7---7---7---7---
---------5---5----9---9---9---9-
--------------------------------
--------------------------------
I missed out some notes in the middle and end in the video for this part.

Chords: C D

Chorus
Chords:
G Em C D
Em Em

Pre-Verse
----------------------
------------
----------------------------------
-2-0-2-4----4----2-0-2-4-----7---- (repeat)
----------5---5----------5s9---9--
----------------------------------
----------------------------------
Chords: C D Em Em

Instrumental
-----5-----5-----------2-----2-------
-0-----0-----0-------0-----0-----0---
---7-----7-----7---2-----2-----2-----
-------------------------------------
-------------------------------------
-------------------------------------

-----7-----8-----7-----8-----5----
---0-----0-----0-----0-----0------
-7-----7-----7-----7-----7-----7--
----------------------------------
----------------------------------
----------------------------------

-----5-----5-----------2-----2-------
-0-----0-----0-------0-----0-----0---
---7-----7-----7---2-----2-----2-----
-------------------------------------
-------------------------------------
-------------------------------------

-----7-----8-----7-----10-----12------14----14----15-
---0-----0-----0-----0-------------------------------
-7-----7-----7-----7------7s9----9s11----11----11-12-
-----------------------------------------------------
-----------------------------------------------------
-----------------------------------------------------

Chords: C D Em Em (x2), followed by G.

11 comments:

DDDX07 said...

Thanks Very Very Much!! ARe u like perfect pitch

kenny said...

Yep! :D

Anonymous said...

this is my fav. hillsong united song and you did a great job with the tabs!
i was just wondering if you can find the tabs to the bridge cuz i only have relative pitch and it doesnt help. i wish i had perfect pitch.

kenny said...

I'll do up the bridge some time in the future...by the way, the chords are:
G C Em D

Don't underestimate relative pitch though.. the musicians I work with in church have relative pitch, but they work out their parts on their own, and figure out notes a split second slower than me only. I myself use a mixture of relative & absolute pitch, although its hard to say to what degree each is used.

Tim said...

oh no, why did the video stop working?

Anonymous said...

hey man this is a good tab dude
u added n xtra at teh 3rd one:
7
0
7
-
-
-
instrumental last bar
.....
-----7-----8-----7-----10-----
---0-----0-----0-----0--------
-7-----7-----7-----7------7s9-
------------------------------
------------------------------
------------------------------
.....
God bless

Anonymous said...

sry man is the 3rd one ther's an error at the post
god bless

krnchurchgoer said...

no way kenny ur perfect pitch? luckyyyy.
thanks for all the hard work man ^-^

Jay-Ar said...

What is a perfect and relative pitch? What's the diff? How will some one know he is a perfect pitch or otherwise?

no said...

how about your settings for the octave???

longge said...

If you accept no Omega watches , you can still get your money aback from the acclaim agenda company. As you knows, you are affairs a replica product, appropriately a lot of of these retailers are traveling beneath all the time and you can never be abiding that you won't get ripped off. Therefore, it is alarming if you accomplish transaction by WU, coffer wire or money order.