Hallelujah (Hillsong)

Here's the instrumental for Hillsong's Hallelujah, which comprises mainly of the original sung melody, but with some fills added in. If you have to build a solo, one good way to go about it is to play the original melody, and then think about what kind of fills and variations you can make.



I over or underbent some of my notes, so take note of the bends too when you're trying the instrumental out.

Tabs
---------------------------------------------
---------------------------8b10-8------------
-5-9b10-9-7--5-9b10-9-7--5--------9b10-9-7---
---------------------------------------------
---------------------------------------------
---------------------------------------------

--------------------
--------------------
-5p4----------------
-----5--------------
-------5-3-2-2------
---------------3-3--

-------12-13-----------------------------
-13h15-------15b17-b17-15----------------
-----------------------------------------
-----------------------------------------
-----------------------------------------
-----------------------------------------
Repeat the above once, followed by:

-------12---------------------------------------------
-13h15----13----13-12--------------------8--13-12-----
-------------12-------12s10-9-9b10r9p7s5----------12--
------------------------------------------------------
------------------------------------------------------
------------------------------------------------------

For the quiet part, I stepped on my volume pedal while playing the note to create a 'violin' effect.
----13-12-10-----13-12-10-----17-15-13-12----
-13-----------13-----------13-------------15-
---------------------------------------------
---------------------------------------------
---------------------------------------------
---------------------------------------------

4 comments:

soad_x said...

Hi, blessings, i'm from mexico so, excuse my english, i like this song, it's really nice, i'm just learning about guitar, it'll be nice if you have the chords for this song.

Thank you.
Greetings.

JTRF said...

Great job Kenny as always. God bless you Bro.

wangzi said...

Nowadays it ability be rather harder to accept a part of women's Jewelry Replica Watches accustomed the advanced array of models that exist. Not alone you accept altered models you aswell accept altered brands that are accessible on the market. It is important that you yield some time in allotment the a lot of adapted archetypal if you wish to abstain some abhorrent surprises.

jasper said...

plsss!!help me!!can u give me a tab and video!! I GIVE YOU GLORY BY OUTBREAKBAND!!!TNX AND GOD BLESS!!