Nothing But the Blood

Here's Nothing But the Blood, a Matt Redman song, but done by Tree63 together with Redman. I particularly like the verse riff, which uses the tremolo effect (i added in some delay too), and is pretty simple to play too!



Tabs
Verse:
--------------------------------------
-12-------13--12-------10---(x2)------
----12-----------12-------------------
-------10-----------10----------------
--------------------------------------
--------------------------------------

---------------------------
-10-----------8------------
----12----12----10----10---
-------12----------10------
---------------------------
---------------------------

---------------------
-3-----------10-s8---
---5---5---9----s7---
-----5---------------
---------------------
---------------------

Chords:
C Am C Am
G F C Am-G

Chorus:
C C Am Am
G F C Am-G

2 comments:

Anonymous said...

oh thats so good, ive been looking everywhere for th tree 63 version

wangzi said...

With those basal tips in mind, actuality are a few things to apperceive about some affluence swiss replica watch brands. Rolex and Cartier are the two best-known brands and both accomplish accomplished watches in a advanced ambit of prices. The best-known brands are not consistently the a lot of adapted by collectors.