For All You've Done (remix)

I seem to be quite free this weekend; here's another post, this time on a remix I did on For All You've Done. Sometimes playing a song too many times can be quite boring for the congregation: "oh its For All You've Done's drum beat again..", and freshening up a song can inject more energy into the worship.



Tabs
Intro
----12----12-------------12------------------
-------------------12-------12----12---------
-13----13----13-14----14-------14------------
---------------------------------------------
---------------------------------------------
---------------------------------------------

----12----12-------------14b16-14b16r14-12---
-------------------12------------------------
-13----13----13-14----14---------------------
---------------------------------------------
---------------------------------------------
---------------------------------------------
Play the above riff twice. A 2nd guitar plays an accompaniment which is also used in the verse:

Verse
---------------------------------------------
---------------------------------------------
---------------------------------------------
---------------------------------------------
-2-2-2-2-2-2-2-7----7---5--------------------
-0-0-0-0-0-0-0-5--0-5-0-3-0-3b-4-------------
Pull down on the '3b' note a little, but not so much that it changes the note.

Pre-Chorus
Chords: C#m A E B (in 7/8 timing, or 3.5 beats)
------------------------------
------------------------------
------------------------------
-----6---4h6---6-6-----4h6----
-4-4-4-4-4---4-4-4-4-4-4------
------------------------------
Mute the bass note slightly.

------------------------------
------------------------------
------------------------------
-----6---4h6---6-6-----4h6----
-0-0-0-0-0---0-0-0-0-0-0------
------------------------------

------------------------------
------------------------------
------------------------------
------------------------------
-----11--9h11--11-11----9h11--
-0-0-0-0-0---0-0--0-0-0-0-----

------------------------------
------------------------------
------------------------------
------------------------------
-----9---7h9---9--9-----7h9---
-7-7-7-7-7---7-7--7-7-7-7-----


Chorus
Chords: E B/D# A/C# B (x2) A B C#m
I used power chords all the way, and B/D# is played as such:
------
------
-9---- Shift everything back by two
-10--- frets to get A/C#.
-7----
------

Instrumental
The first part is as per original, see here for the solo. For the 2nd half, the chords are C#m2 A2 E2 B2, in order:
----------------------
----------------------
-8-----11--8-9-8------
-6--9--9---------9----
-4--7--7-----------9--
----5-----------------

Bridge (or quite pre-chorus)
This is useful if you're playing without a keyboardist as you can substitute the piano part with this:
-0----------0----------0----------2----------
---4---(x5)---4---(x5)---4---(x5)---4---(x5)-
-----4----------2----------4----------4------
---------------------------------------------
---------------------------------------------
---------------------------------------------

10 comments:

Anonymous said...

the verse is quite hard to catch

Agnus Dei said...

Is there a bass tab for that? thanks!

kenny said...

Follow the lowest note for the verse's tabs, and just play the chord for the other parts of the song.

āarΘn said...

wow thats awesome.. love to have the tabs for the lead guitarist as well :D

yeah heaps gd. GBU

Anonymous said...

there is a guitar in the background, do you have that tabs?

kenny said...

Not in the immediate future.. its mainly the melody, in E major, why not try figuring it out on your own as an exercise?

Anonymous said...

,,eLow,,

cAn yOu gIve mE tHe tAbs oF the melody of For All youve Done?

tnX,,
plEaSe reSponse in mY aDdrEss:
cyberspacer02yahoo.com


tNx aNd god BlEss yOu,,

Anonymous said...

I need the tabs for the melody...I can't seem to figure all of it out...can anyone help me

ismael said...

Hello, I'm Just curious about setting up a hillsong guitar sound, sometimes we used to try as much as we can to buy all the gadgets Hillsong guitarists used in their play, and at the end we feel frustrated to discover that we think we did, but did not get that hillsong feel, actually, it is not that gadgets, but its 50% helpful though,

check this out, I'm just using a made in china distortion.

But I think is worth playing...

http://www.youtube.com/watch?v=UKeDAll04hs


....hehehe...and no screamy feed backs!!!!.. God Bless, you are really a help Kenny...

TIMTIMTIMTIMTIMTIMTIMTIMTIMTIMTIM l said...

lol
for the chorus the tab is x698xx