This is How We Overcome

As requested, here are the two short guitar licks that are played before the 2nd verse and bridge in Hillsong's This is How We Overcome. They've a funk feel to them, but funk isn't much my style, so this is the best I could come up with, hope its enough:



By the way, these solos use the pentatonic scale heavily.

Tabs
Pre-2nd Verse
----------------------------------
----------------------------------
-------5s7-5-7b9r7p5-7p5---5-7----
-5s7-5-------------------7--------
----------------------------------
----------------------------------

----------------------------------
----------------------------------
-7b9-7--7b9r7p5-------------------
----------------7p5---------------
--------------------5-3-----------
----------------------------------

Pre-Bridge
--------------------------------------------
---------------------------13s15-13--8s10-8-
-5-5-5-5--7p5-------5-5----12s14-12--7s9--7-
--------------7-5h7-----7-------------------
--------------------------------------------
--------------------------------------------

6 comments:

Anonymous said...

kenny can you pliss make a video explaining what "r","p","h","b" and "s" means on your tabs?
thank you! GOD BLESS!

kenny said...

I might do that in the future, but the letters mean:
r = release
p = pull-off
h = hammer-on
b = bend
s = slide
Try googling for them in the meantime.

Anonymous said...

Thanks for the help Kenny.
Is there any way I can contact you?,
do you have an e-mail? oh and can you tell me how to become a member of this website because Im new in it.
thanks!

kenny said...

Well you can just leave me a msg on the comments box, but my preferred way is through the forum.

No membership is required for this website, its just a blog, but u can register yourself in the forum.

BAG 64 said...

This is such a blessing thank you. I have recently started playing electric on stage. Thanks God bless

BAG 64 said...

Thank you for the tabs this is a huge blessing. I recently started playing electric and this is helping out a lot when I play in church. Praise the Lord