Salvation Is Here (United Live)

I did the Hillsong version of this song some time back, but several people have been asking for the United version, so here it is, first with the rhythm part, and then the lead part:



Tabs
Intro:
Rhythm
Keep strumming
-------
-12----
-11----
-9-----
-------
-------

Lead
-----------------
-12-11-----------
-------11--(x2)--
-----------------
-----------------
-----------------

Verse
Rhythm
Keep strumming
----------------
-12--12-12------
-11--9--9h11----
-9---9--9-------
----------------
----------------

Lead
------------------
------------------
-8---6---8---9----
------------------
-6---4---6---7----
------------------
Use slides to change between the notes.

Bridge
Switch between these two chords
-4--4---
-5--4---
-4--4---
--------
--------
--------

12 comments:

Tim said...

hey, i found that you could play lead as a chord, if you wanted like so:

----------------------
-12-----11-----0------
-11-----11-----11-----
-9------9------9------
----------------------
----------------------

Then again, I'm not that good at playing and nothing seems to come out that well.... so I'm just throwing it out there.

By the way, I've found tabs on the bass solo for the bridge, but I was wondering if anyone could put up a vid of actually doing it. I can't get "playing a note three times" down. I'm trying to learn bass...

Thanks.

kenny said...

That is definitely correct, and better if there is only one electric guitarist. If there are two, one could play the lead line, as posted.

I think there's a bass video for the bass solo, in the bass section.

Chris said...

ahh thanks so much! God bless

Peter said...

hey kenny. i noticed the rhythm only shows the basic part.. but what are the tabs for the "Its gonna be alright" segment? sorry if im just missing where its posted.

kenny said...

Its a G#m first, followed with E:

G#m:
-----------------
--9---------------
--8---------------
--9---------------
-----------------
-----------------

Peter said...

thanks bro. you are truly blessed. much thanks from those of us who need this.

Peter said...

i know Nigel from the adult Hillsong.. said that he plays the intro as an octave on the d-b strings.. so its like

B|12-11-7|
G|X-X-X|
D|9-8-4|

anyway.. i think its more full that way. your effects seem to make yours sound fine though.

Anonymous said...

what are the sound effects for the two guitarrs?

da_guitar_boi said...

On the verse you have it like this:

------------------
------------------
-8---6---8---9----
------------------
-6---4---6---7----
------------------

It should be like this:

------------------
------------------
-8---9---8---6----
------------------
-6---7---6---4----
------------------

Other than that everything is great. You are doing an awesome job Kenny. You are truly appreciated. Keep up the good work.

Jonathan

Taylor said...

Hey Keny What are the chords to the chorus on this? Thnx

jo said...

the chords for the chorus are:

B E F# G#m

B E C#m E B

Lalo said...

hi, thnks for the video and the tabs, but i have a question, what is the type of distorsion you use, i have a pod x3 live (i dont know maybe you have one jajaja)