Son of God

As requested, the intro & ending to Hillsong's Son of God. By the way, the Lincoln Brewster version has loads of guitar parts in it (his soloing is rather hard to catch, so i'll keep away from them for now) , do check it out as well.



Note that there are lots of pull-offs for this song.

Tabs
----------------------------------------
----------------------------------------
-2p0-2p0-----(x2)-4p0-4p0-----(x2)------
---------4p0--------------4p0-----------
----------------------------------------
----------------------------------------

----------------------------------------
----------------------------------------
-6p0-6p0-----(x2)-7p0-7p0-----(x2)------
---------4p0--------------4p0-----------
----------------------------------------
----------------------------------------

2 comments:

Anonymous said...

Bro, your doin great with those licks by Linc.
I think all he picks it all from 1st to 7th measure then pull-offs at the 8th and then again straight pickin in the last measure.
Please try if that sounds correct.
May I also ask you to please post the All To You adlib tab if you can do. Thanks a lot. God bless!
JCLN, Philippines.

gerald said...

on the ending... nigel did dis in a higher octave.. :D