Now is The Time

I don't really like delirious' music, but somehow their 'Now is the Time', a live album, caught my interest. There're lots of nice guitar parts too, and I intend to tab out quite a few of them, starting with Now is the Time's intro, verse, and chorus.



In the above video, I play the chorus at the end without music, so as to allow the guitar to be heard.

Tabs:
Intro
--------------------------------------------
------------------------------------------
------------------------------------------
-----------------2-2-2-2-2-2-2-2-2--------
-3-3-3-3-3-3-3-3--------------------------
------------------------------------------

----------------------------------
----------------------------------
----------------------------------
----------------------------------
-2-2-2-2-2-2-2-2-5-5-5-5-5-5-5-5--
----------------------------------

Play the above two lines twice, followed by:

-----------------------------------
-----------------------------------
-9-7-7-7--9-7-7-7-7--2----0--(x2)--
-----------------------------------
-----------------------------------
-----------------------------------


Verse
--------------------------------------
-----0-------0--------0---------------
---0---0---0---0----2----0-----(x2)---
------------------0-------------------
-3------------------------------------
---------3----------------------------

-----------------------------------------------
-----------------------------------------------
-9-7--9-7--2--0--9-7--9-7-9-9-9-9-9-9-11-11-12-
-----------------------------------------------
-----------------------------------------------
-----------------------------------------------


Chorus
Strum the following:
--------------------------------------------
-5--3--7--7-8--(x2)-5-12-5-12-14--14-15-----
-5--4--7--7-7-------5-12-5-12-14--14-14-----
--------------------------------------------
--------------------------------------------
--------------------------------------------

2 comments:

jonathan ho said...

nice one! thanks so much. =)
though i thought the starting C, E, B, D riff were power chords to be strummed. =)

Andrew said...
This comment has been removed by the author.