Longing For You

Here's another song from Paradise Live. While the intro is fairly easy, the bridge is quite interesting, do check it out even if you've not heard of their music.



Tabs
Intro
-12-12-10-10-9-9-10-10--(repeat)--
----------------------------------
----------------------------------
----------------------------------
----------------------------------
----------------------------------

Bridge
-------------------------------
-------------------------------
--------6-4----------6-4-----
-----6-----------4h6---------
-4-7-----------5---------------
-------------------------------

---------------------------
---------------------------
--------6-4----------6-4---
---4h6----------4h6--------
-7------------7------------
---------------------------

2 comments:

Anonymous said...

Eh, the EE,DD,C#C#,DD is good. But for the scale at the bridge there, the it kinda sounds weird. Try B,C,D,G,F#(x2), C,D,E,F#,G(x2), D,E,F#,G,F#(x2), B,C,D,G,F#(x2). Start on the B on the 9th fret. Yep.

wangzi said...

With their assorted amazing ideas, Silver Jewellery adornment has become so popupar. This artful appearance is actually mesmerizing. Bead earrings with precious stones in 18k white gold, for broken ears. Copyrighted designs. This section of appearance earrings are not actual expensive, but it’s actual mysterious.