All About You

By Daryl

Here are the intro & bridge parts for All About You by United Live:



Tabs
Intro
-----------------------------------------
-----------------------------------------
--4h6--4h6--4h6--4-6h7p6p4---------------
----------------------------7------6---4-
-----------------------------------------
-----------------------------------------


Alternatively,
---------------------------
-0h2-0h2-0h2-0h2h3p3p0-for the first part
---------------------------
---------------------------
---------------------------
---------------------------

Bridge
End the singing part with
-------------
-------------
-7--9--14----
-------------
-5--7--12----
-------------

Followed by a clean sound:
----5---5---4---4----
------5---5---5---5--repeat
---------------------
---------------------
---------------------

Alternatively,
----0----0---0---0---
-10---10---9---9-----
---------------------
---------------------
---------------------
---------------------

6 comments:

JohnGalt20 said...

I thought the intro part was more bending and less hammer ons?

ImpactBlue said...

Agreed

Anonymous said...

that is the shiniest strat ive ever seen, what kind is it?

Grabïrieu said...

it's a Fender, can't you see??

Joseph said...

can you post up a tab for the wah pedal in the verse?

Joseph said...
This comment has been removed by the author.