Jesus Freak

Here's the instrumental & chorus to Jesus Freak by Dc Talk, one of my favourite 90s Christian bands. I get a feeling that they don't tune their guitars to 440hz, thus the clashing sound with my overdubbing for the instrumental, unless i got the notes wrong or something.




Tabs
Instrumental
--------------------------------s16----------
-2---2---2---------s14--------------14-14-14-
-5b6-5b6-5b6-1-1-------13-13-13--------------
---------------------------------------------
---------------------------------------------
---------------------------------------------


Chorus
Play Fm Ab, followed by
--------------
--------------
-8-8-7-7-5-5--
--------------
-6-6-5-5-3-3--
--------------

3 comments:

DJ said...

solo wasnt really that great but everything else was ok

Anonymous said...

I think that it should be Em to G then the walk down from D to C...

SunDance said...

It is so cool!!
Thank you!