History Maker

Here's History Maker by Delirious, definitely one of the classic Christian anthems. Sometimes we get all hyped up about 'being a history maker', or 'making an impact on the world', especially in the more youth-oriented services, or if the pastors are very dynamic. However, have you seriously thought about the subject? Can one individual, or even a small group of Christians make an impact on history? We need to start somewhere, and that is there people do not know God - our class, our workplace, our neighbours, our friends. Let this song become a song of action, and not just ambition!

Here is the video for the song.. unfortunately I did not syncronise the video and the recording properly, and the video lags behind the audio.



On a more whimsical note, my friend's back from his studies in Italy (say hi! in the tagboard if you're from there!), and this is probably the last post with his orange fender.

Tabs
Pre-chorus 1:
-----3---3--------------------------------------
---3---3---3----------6---5-----3-----5-----6---
-0-----------(x2)---5---5---5-----5-----5-----5-
------------------3-----------3-----3-----3-----
------------------------------------------------
------------------------------------------------

Verse 2 & Prechorus 2
--------------------|(strum)----------|(play once)
-----3-------1------|----8--6-5-3-5-6-|-----------
---0-------0--------|----7--5-5-5-5-5-|--5-4------
-2-------3------(x2)|----5--3-3-3-3-3-|------7-3--
--------------------|-----------------|--3-2------
--------------------|-----------------|------5-1--

Chorus
-(strum)-----------------------
--13---13---13---13-13-13------
--12---12---12---10-9--10--(x2)
--10---10---10-----------------
-------------------------------
-------------------------------

---------------------------
-13--12--13--13-13-13------
-12--12--12--10-9--10-(x2)-
-10--12--10----------------
---------------------------
---------------------------

Verse 3 & Prechorus 3
-(w wah)-----(w tremolo)----------------------------
----------------------------------------------------
--9--9--9--9------------------Then play prechorus 2-
----------------------------------------------------
-------------0-0-2-3--0-0-2-3-----------------------
---------------------1--------1---------------------

10 comments:

heka said...

at the last tab

-0-0-2-3--0-0-2-3--
--------1--------1-

isn' it more like

-----------------3-
-0-0-2-3--0-0-2-3--
--------1----------

Anonymous said...

what is the sound effect used in the chorus??

sujays said...

its great bro thanks a lot i love this song. i hav a doubt n dont knw wat to play in 2nd chorus i mean i play the chours part which u showed me for 1st 2 times n for 3 and fourth time it diffrs

gustavo said...

Hi there.. I just found this blog and its great!! my qquestion is this... I have a Boss ME-50.. do you think I can get the sound??? can U gimme the config you are using for the effects plz?? I cant get it!!

gustavo said...

ohhh and BTW... dont have the tab of the solo?? if is too much asking??.. thanks a lot.. nice playin' there!

guitarmex said...

kenny eres impresionante sabes te escribo desde mexico creo tus tus videos han pasado fronteras
dios te bendiga mucho

123 said...

Pandora Bracelets Charms, Pandora Bracelets of artlessly Pandora. How do you seek to acquisition you next christmas gift? Sadly we accept a bit of a stats aberration in the appointment so we challenged them to appear up with some absorbing data. Now appear on Ladies, they are attractive but this is a little too acute a breadth to go to get authority of them.

seeworld said...

You select very own beads and charms and also pellets for which you choose, keeping up with is suited to an individual's persona. At this moment, connection your beans combined with both regarding all the rope-like bracelet/necklace to form a special advance of earrings.

seeworld said...

You are able to discover the pendants plus charm bracelets each of those via the web in addition to pandora bracelets stores pandora uk. Such bracelets and necklaces are perfect present creative ideas for everybody who is representing something special with the specialized sweetheart in your daily life.

zhangyue said...

Couldn’t be composed any better. Reading through this article reminds me of my old room mate! He always kept talking about this. I will send this blog post to him. Very sure he will have a fantastic read. Cheers for discussing!
Moncler Mens Jackets
Moncler Mens Vests