Kingdom Come

By Daryl




Tabs:
[Kenny: I've edited some of the tabs for accuracy, so it might differ from the video abit]

Intro

-------------------------------------------

-------------------------------------------
-11-11-11-9-9-9-11-11-11-9-9-9-11-11-9h11--
-------------------------------------------
-------------------------------------------
-------------------------------------------

-------------------------------------------
-10-10-10----------------------------------
----------9-9-9-11-11-11-9-9-9-11-11-9h11--
-------------------------------------------
-------------------------------------------
-------------------------------------------

-------------------------------------------
-12-12-12----------------------------------
----------9-9-9-11-11-11-9-9-9-11-11-9-----
---------------------------------------9---
-------------------------------------------
-------------------------------------------

-----------------------------------------------
-----------------------------------------------
-----------------------------------------------
-12-12-12-11-11-11-9-9-9-12-12-12-11-11--------
----------------------------------------12-12--
-----------------------------------------------
Repeat, then end on D--11---- as the verse comes in.

Pre-Chorus
-------------------------------------------------
-------------------------14-14-14-14-15-15-15-15-
-12-12-12-12-14-14-14-14-------------------------
-------------------------------------------------
-------------------------------------------------
-------------------------------------------------

-------------------------------------------------
-10-10-10-10-12-12-12-12-14-14-14-14-15-15-15-15-
-------------------------------------------------
-------------------------------------------------
-------------------------------------------------
-------------------------------------------------


Variations: Verse & Instrumental
Most of these are my own innovations, and the verse also uses the same delay used in Take it All (dotted eighth note digital delay).



Tabs
Verse
----------------------------------------
-----7------8-------10----3---3---3---3-
---7------7-------9---------0---0---0---
-9------9------11-------4---------------
----------------------------------------
----------------------------------------
Italicized notes were played too softly in the video

----------------------------------------
-----7-(x8)---8-(x8)----10-(x8)----8-(x8)
---7--------7---------9----------7------
-9--------9--------11----------5--------
----------------------------------------
----------------------------------------

See Daryl's post for the pre-chorus.

Instrumental (the part before this is the same as the intro)
(strum)
-------------------------------------

-12-14-15--12-14-15--14-15-14--12----
-11-11-11--12-12-12--14-14-14--12----
-------------------------------------
-------------------------------------
-------------------------------------

7 comments:

tmt7 said...

hi! could you say "the name of the effects" in every song please?


sorry about my english.

kenny said...

Usually its just a distortion pedal connected to an amp, with a tad bit of reverb. Some delay is occasionally used. Check out the forum if you the details of our gear.

Anonymous said...

hi...may i know wat technique is used for the second solo in this song?i cant seem 2 get it right,as well as the effects used.thanx in advance

Anonymous said...

hello....john mark me.....that solo was too easy.....but fabulous......i like it.....


can you play thay instrumentals clearly?

some other solo....had a conlfict on hearing it....thankss....GOD BLESS..

JOhn MArk from phillipines

Anonymous said...

can you do the hole song brige and all

Anonymous said...

hi how are you? i was wondering how the chours of this song is played. i cant seem 2 figure it out.

any help would be great. AWESOME SITE
By The Way.

Brendon from New Zealand

Colin said...

chorus,

D G
May Your Kingdom come and Your will be done
Bm G
As we serve Your heart serve Your heart
D G
Let salvation flow as Your people pray
Bm G
Lord we long for more long for more