Faith (Instrumental, by Hillsong)

Someone requested for this song a few weeks ago, and I thought it would be simple since it was from an older album. Although the guitar solo lasts for a mere 5-6 seconds, it is extremely difficult to play!



I wouldn't say that i've done it properly, because the sound I've used is far too thick as compared to the cd, and I picked everything - try to use pull-offs and hammer-ons as far as possible.

Tabs:
-------12h14-b15r14-12-------12----------------
-15b17-----------------15b17----15-12----------
-----------------------------------------------
-----------------------------------------------
-----------------------------------------------
-----------------------------------------------


This part uses the pentatonic scale, check it up under 'theory and techniques'.
----------------------------------------
----------------------------------------
-15-14-12----14-12----------------------
----------14-------14-12----------------
-------------------------14-12----------
-------------------------------15-12----

4 comments:

chris said...

I think the last part should be:

---------------------------------
---------------------------------
---------------------------------
---------------------------------
---------------------------------
--------------15-12-15-14-12

but still, I'm not sure of this..thanks for the tab..

chris said...

here is another tab that I think should be the ending, I'm confused of this last part..

---------------------------------
---------------------------------
---------------------------------
---------------------------------
------14-12--------------------
--------------12-15-12-15-12

Enjel said...

is this similar to the "blues" scale? or am i just confused?

kenny said...

Yep.. it resembles the blues scale..