What Child is This (acoustic solo)

I've just gotten myself a new acoustic, something which I'm quite excited about, because I like to do fingerpicking, though I'm not too good at it. Here's an arrangement for a solo acoustic guitar for What Child is This. It might come in handy for Christmas caroling.



By the way, if anyone is interested in starting acousticpraise.blogspot.com, drop me a mail or leave me a comment anywhere in this blog/forum.

Also, listen to a similar arrangement of Silent Night (no tabs).

Tabs
Verse:
--|------|-0-1-0-|----|-------|
--|-1--3-|-------|-3-0|-----0-|
-2|------|-------|----|-0-2---|
--|------|-------|----|-------|
--|-0--2-|-3-----|----|-------|
--|------|-------|-3--|-0-----|

|----|-------|----------|
|-1--|-------|-0-----0--|
|---2|-2-1-2-|---1------|
|----|-------|-----2----|
|-0--|-------|----------|
|----|1------|-0--------|

--|------|-0-1-0-|----|-------|
--|-1--3-|-------|-3-0|-----0-|
-2|------|-------|----|-0-2---|
--|------|-------|----|-------|
--|-0--2-|-3-----|----|-------|
--|------|-------|-3--|-0-----|

|-------|-------|-------|
|-1-0---|-------|-------|
|-----2-|-1---1-|-2--2--|
|-------|---4---|-2--2--|
|-0-----|-------|-0--0--|
|-------|-0-----|-------|

Chorus:
|-3--|-3-2-0-|------|-------|
|----|-------|-3--0-|-----0-|
|----|-------|------|-0-2---|
|----|-------|------|-------|
|-3--|-3-----|------|-------|
|----|-------|-3----|-0-----|

|----|-------|----------|
|-1--|-------|-0-----0--|
|---2|-2-1-2-|---1------|
|----|-------|-----2----|
|-0--|-------|----------|
|----|1------|-0--------|

|-3--|-3-2-0-|------|-------|
|----|-------|-3--0-|-----0-|
|----|-------|------|-0-2---|
|----|-------|------|-------|
|-3--|-3-----|------|-------|
|----|-------|-3----|-0-----|

|-------|-------|-------|
|-1-0---|-------|-------|
|-----2-|-1---1-|-2--2--|
|-------|---4---|-2--2--|
|-0-----|-------|-0--0--|
|-------|-0-----|-------|

1 comment:

Aaron said...

yea acousticpraise sounds like a good idea dude totally