My God (intro)

I'm proud to introduce Daryl, who has contributed the video and tabs for My God, by United Live. The video quality is pretty good, enjoy!

--------------------



Tabs:
-----------------------------------
-----------------------------------
-----------------------------------
-----------------------------------
-----7-------7-------6h7p6---6h7--
-4-4---4-5-5---5-7-7-------7------

------------------------------
------------------------------
------------------------------
------------------------------
------7-------7-------9----9--
--4-4---4-5-5---5-7-7----7----

2 comments:

Peter said...

umm if u want the like other bridge solo i think its
-----------------------------------
-----------------------------------
-6---9---8---4---14---16---13---11------------------------------------
-4---7---6---2---12---14---11---9------------------------------------
start strumming at 12th fret
-----------------------------------------------------------------------6---9---8---4---14---16---18---20-------------------------------------4---7---6---2---12---14---16---18------------------------------------
again start strummming at 12th fret

that is the full solo i believe. i like it alot better than the picking version cuz it sounds more fuller.

Peter said...

those tabs are played on the a and g string. sry for the mistakes