Higher (I Believe in You)

This post marks the final tabbed song for Mighty to Save, unless I missed out any guitar part. While the intro/verse is pretty ok, the bridge for this song is a real challenge, and I took dozens of recordings to get the follow video (with some mistakes, still):



Tabs:
Intro
Use delay in the intro and the verse, set to a dotted quaver (or a dotted eight note).
-------------------------------15-----
-10----10--12----12--13----13---------
--------------------------------------
----10--------12--------14------------
-8---------10--------12---------------
--------------------------------------

--------------------------------------
-10----10--12----12--13----13---15----
--------------------------------------
----10--------12--------14------------
-8---------10--------12---------------
--------------------------------------

--------------------------------------
-10----10--12----12--13----13---13----
--------------------------------------
----10--------12--------14------------
-8---------10--------12---------------
--------------------------------------

--------------------------------------
-10----10--12----12--13----13---15----
--------------------------------------
----10--------12--------14------------
-8---------10--------12---------------
--------------------------------------

Verse
--------------------------------------
-10----10--12----12--13----13---------
--------------------------------(x3)--
----10--------12--------14------------
-8---------10--------12---------------
--------------------------------------

-------------------------------15-----
-10----10--12----12--13----13---------
--------------------------------------
----10--------12--------14------------
-8---------10--------12---------------
--------------------------------------

--------------------------------------
-10----10--12----12--13----13---------
---------------------------------(x4)-
----10--------12--------14------------
-8---------10--------12---------------
--------------------------------------

Bridge
Tap all the way. This part is really difficult! Everything is played on the high E string.
-0-3-7-0-3-7-0-3-8-0-3-7-0-3-7-0---

-1-5-8-0-5-8-0-5-10-0-5-8-0-5-8-0--

-5-8-12-0-8-12-0-8-13-0-8-12-0-8-12-0--

-3-7-10-0-7-10-0-7-12-0-7-10-0-7-10----

8 comments:

vic said...

i love this song! thanks for tabbing it out

Manuel said...

Great tabbing but have you seen the guitar workshop on the DVD 'Mighty to Save'? The bridge is explained otherwise, also using the B string.
-------7--0------7--0------8-0
-----8-------8----------10--- etc.

Aaron said...

yeah, you can see the workshop video at http://youtube.com/watch?v=2CYcceV3H2I and maybe adjust the tab accordingly

Anonymous said...

hey what are the chords you are holding during the intro and verses?

kenny said...

The chords are:
F G Am7 Am7

Anonymous said...

the bridge should "really" be

--7p0--7p0--8p0--7p0--7p0
-8----8----8----8----8---

---8p0---8p0---10p0---8p0---8p0
-10----10----10-----10----10---

---12p0---12p0---13p0---12p0---12p0
-13-----13-----13-----13-----13---

---10p0---10p0---10p0---10p0---10p0
-12-----12-----12-----12-----12---

i got this from guitar workshop
God bless all!

ps. Kenny you are the man! i've got so many things from this blog!

Snake said...

I disagree... Kenny's got it right. The recording is tapped the entire time.

G Clark said...

Tapping works too, but I'm gonna have to side with the Droff on this one. Using the B/E strings together makes things go a little more smoothly, although either option works perfectly well.