Deeper (intro, verse, instrumental, ending)

Deeper (United Live) is a beautiful song... although its quiet, its really powerful, and reminds me of God's whisper in the wind to Elijah amidst the storm. As Christian guitarists, we must remember that its not all about over-powering fast songs with heavy distortion and blazing solos - we must be able to minister through contemplative & quiet songs such as these.



For the other parts of the song, pluck open or barre chords.

Intro-Verse
------|------|--------|-------|
-5--5-|-5--5-|-0---0--|-1--1--|
---0--|---0--|---2----|---2---|
--2---|--2---|--------|--2----|
------|------|--------|-------|
------|------|--------|-------|

---0--|------|---------|-------|
--3---|---1--|-----0-1-|-----1-|
-2----|-0----|-1-2-----|---2---|
------|------|---------|-2-----|
------|------|---------|-------|
------|------|---------|-------|


Instrumental-Ending
--------------------------------
-10---10--5---5--12---12--5--4--
----0-------0-------0-------0---
--------------------------------
--------------------------------
--------------------------------

-----------------------------------
-10---10--5---5--12---12—13p12--12-
----0-------0-------0----------0---
-----------------------------------
-----------------------------------
-----------------------------------

4 comments:

Anonymous said...

This is a great song can you add what the other guitar does please, thanks!!

GabonMx said...

Sound better in that way

--------------------------------
-10---10--5---5--12---12--5--4--
--------------------------------
----10------5-------12------5---
--------------------------------
--------------------------------

-----------------------------------
-10---10--5---5--12---12—13p12--12-
-----------------------------------
----10------5-------12---------12--
-----------------------------------
-----------------------------------


whit a little slide in the changes

Flavius said...

Heard another chitara background .... you could add to this video namely putting his notes in touch please: D
gbu

Gene Kelley said...

the rhythm guitarist plays

12----------------12------------
--12h11-12----------12h11-12--10
-----------12h14-------------9-- x2
--------------------------------
--------------------------------
--------------------------------

hope it helps