All the Heavens (instrumental)

Here are the tabs for All the Heaven's guitar solo; notice the use of quite abit of hammer-ons and pull-offs, and that much less distortion is used as compared to their songs these days.





Tabs

----------------|-----------------|
----------------|-----------------|
--2--4-5--4p2p0-|-5s7-7s9-9-10-12-|
----------------|-----------------|
----------------|-----------------|
----------------|-----------------|

----------------------------12-13-15-
----------10-12-13-15-13-15----------
-9-10-12-----------------------------
-------------------------------------
-------------------------------------
-------------------------------------

-15-15-15--15h17p15-----------------------
--------------------18p17p15-17--15p13p12-
------------------------------------------
------------------------------------------
------------------------------------------
------------------------------------------

----------------------------|------------------
------10h12h13-10--10-12-13-|13--12p10p8h12-10-
-14-------------------------|------------------
----------------------------|------------------
----------------------------|------------------
----------------------------|------------------

-15s17-17-17-17-|-17-15-15-13-13-12-12-10-10h12p10p8-
----------------|------------------------------------
----------------|------------------------------------
----------------|------------------------------------
----------------|------------------------------------
----------------|------------------------------------

-7h8-7h8h10p8p7------------
----------------10p8---8---
---------------------7-----
---------------------------
---------------------------
---------------------------

3 comments:

conway said...

ei bro what chords are playing here?

the lost soul said...

It should go something like:
F/A G F/A G
F/A G F/A G

Can't decide if F/A or Am is used though.

iw2198 said...

The lead sheet off CCLI has it
C/G G6 : F/A X2
G Am : F/A : Gsus
so thats seven bars