Majesty (Here I Am)

As requested, the tabs for Majesty. This version is meant to be played with a bassist, so the bass notes are omitted. Also, this version is in the more comfortable key of A, while the actual version is played in C#, which is very difficult to sing in. There might be some slight discrepancies with the cd version, but it is more or less accurate:



Tabs (can't get the chords to align, so sorry):

Introduction:
e-5-------5---|-4--------4-----|------------------------|
b------7------|-------7--------|-7-------7---7--------7-|
G-------------|----------------|------7-------------7---|
D---7-------7-|----7--------7--|---7-------------7------|
A-------------|----------------|------------------------|
E-------------|----------------|------------------------|
F#m E D

Verse:
e-5-------5---|-4--------4-----|------------------------|
b------7------|-------7--------|-7-------7---7--------7-|
G-------------|----------------|------7-------------7---|
D---7-------7-|----7--------7--|---7-------------7------|
A-------------|----------------|------------------------|
E-------------|----------------|------------------------|
F#m E D

“Here… I.. am…..”

e--------------------|---------------------------|
B-5-----7----5-----7-|-7------7-------7------7---|
G--------------------|---------------------------|
D----7----------7----|----7--------------7-------|
A--------------------|---------------------------|
E--------------------|---------------------------|
A D

“Humbled by Your majesty…”

e----------------------|-------------|---------4--|
B-5------7---5---------|-------5-----|------6-----|
G----------------7--6--|-----4----4--|--6---------|
D----7-----------------|--6----------|------------|
A----------------------|-------------|------------|
E----------------------|-------------|------------|
A E C#
“Covered by Your grace so free…”


Pre-Chorus

e---------|------------|-------------------------|
B-------7-|---------5--|---------5---------------|
G---6-----|-----4------|------6----6--7--6--4----|
D-4-------|--6---------|---7-------------------7-|(x2)
A---------|------------|-------------------------|
E---------|------------|-------------------------|
F#m E A
“Now I’ve Found……the greatest love of…”
“All… is… mine……since You laid down Your…”


e--------7--9--7----------|
B-----7-----------10---9--|
G---8---------------------|
D-9-----------------------|
A-------------------------|
E-------------------------|
B
"life, the
greatest sacri-…”


e -------------------|-------------|
B --10------10-------|-9----9------|
G -------7------7----|----7----7---| (x2)
D -------------------|-------------|
A -------------------|-------------|
E -------------------|-------------|
D E

“-fice…”


Chorus:Strum chords with distortion
A E F#m D

A E Fdim7 F#m D (x2)

4 comments:

Anonymous said...

Is this the Passion version or the delirious version in the Unified Praise with Hillsong?

kenny said...

This should resemble the Unified Praise version more..

Jaison said...
This comment has been removed by the author.
Jaison said...

Thanks for the tabs Kenny, I didn't think I could learn this song so easily.

God bless you :)