Jump Around (Intro)

As requested, here are the tabs for Jump Around, by Planetshakers. The intro riff is quite catchy, and quite easily done as well. Beef it up with a wah pedal in the introduction.




Tabs (use the A and D strings only):
D---------------3-|-----------5-3--|
A-3-5-5-3-5-3-5---|-3-5-5-3-5------|

D---------------3-|---2-3-5---|
A-3-5-5-3-5-3-5---|-5---------|


To make it sound more powerful:
E-------------------------|----------------------|
B-------------------------|----------------------|
G----------------------10-|----------------12-10-|
D-10-12-12-10-12-10-12-10-|-10-12-12-10-12-12-10-|
A-10-12-12-10-12-10-12----|-10-12-12-10-12-------|
E-------------------------|----------------------|

E-------------------------|---------------|
B-------------------------|---------------|
G----------------------10-|----9-10-12----|
D-10-12-12-10-12-10-12-10-|-12-9-10-12----|
A-10-12-12-10-12-10-12----|-12------------|
E-------------------------|---------------|

3 comments:

Bob said...

I love this song man!xD
Just saying.

Anonymous said...

tabs for the little solo at the beginning?

r3ck0rd said...

for the solo (original):
E---------------------------------------
B-------------------10----13---10-------
G-------10----10-12----10---------12-10-
D-10-12----12---------------------------
A---------------------------------------
E---------------------------------------

but I myself like this better (pull-offs are a turn):
E--------------------------------------------
B-------------------10----12b13-10-p8-p6-8-6-
G-------10----10-12----10--------------------
D-10-12----12--------------------------------
A--------------------------------------------
E--------------------------------------------

if they're not readable enough, copy and paste to notepad